  0
SECTION
  2
HEADER
  9
$ACADVER
  1
AC1015
  9
$ACADMAINTVER
 70
     6
  9
$DWGCODEPAGE
  3
ANSI_1254
  9
$INSBASE
 10
0.0
 20
0.0
 30
0.0
  9
$EXTMIN
 10
0.0
 20
0.0
 30
0.0
  9
$EXTMAX
 10
279.4
 20
215.9
 30
0.0
  9
$LIMMIN
 10
0.0
 20
0.0
  9
$LIMMAX
 10
279.4
 20
215.9
  9
$ORTHOMODE
 70
     0
  9
$REGENMODE
 70
     1
  9
$FILLMODE
 70
     1
  9
$QTEXTMODE
 70
     0
  9
$MIRRTEXT
 70
     1
  9
$LTSCALE
 40
1.0
  9
$ATTMODE
 70
     1
  9
$TEXTSIZE
 40
3.5
  9
$TRACEWID
 40
1.0
  9
$TEXTSTYLE
  7
Standard
  9
$CLAYER
  8
0
  9
$CELTYPE
  6
ByLayer
  9
$CECOLOR
 62
   256
  9
$CELTSCALE
 40
1.0
  9
$DISPSILH
 70
     0
  9
$DIMSCALE
 40
1.0
  9
$DIMASZ
 40
3.5
  9
$DIMEXO
 40
1.0
  9
$DIMDLI
 40
3.75
  9
$DIMRND
 40
0.0
  9
$DIMDLE
 40
0.0
  9
$DIMEXE
 40
1.0
  9
$DIMTP
 40
0.0
  9
$DIMTM
 40
0.0
  9
$DIMTXT
 40
3.5
  9
$DIMCEN
 40
2.5
  9
$DIMTSZ
 40
0.0
  9
$DIMTOL
 70
     0
  9
$DIMLIM
 70
     0
  9
$DIMTIH
 70
     1
  9
$DIMTOH
 70
     1
  9
$DIMSE1
 70
     0
  9
$DIMSE2
 70
     0
  9
$DIMTAD
 70
     1
  9
$DIMZIN
 70
     0
  9
$DIMBLK
  1

  9
$DIMASO
 70
     1
  9
$DIMSHO
 70
     1
  9
$DIMPOST
  1

  9
$DIMAPOST
  1

  9
$DIMALT
 70
     0
  9
$DIMALTD
 70
     3
  9
$DIMALTF
 40
0.0393700787
  9
$DIMLFAC
 40
1.0
  9
$DIMTOFL
 70
     1
  9
$DIMTVP
 40
0.0
  9
$DIMTIX
 70
     0
  9
$DIMSOXD
 70
     0
  9
$DIMSAH
 70
     0
  9
$DIMBLK1
  1

  9
$DIMBLK2
  1

  9
$DIMSTYLE
  2
ISO-25
  9
$DIMCLRD
 70
     0
  9
$DIMCLRE
 70
     0
  9
$DIMCLRT
 70
     0
  9
$DIMTFAC
 40
1.0
  9
$DIMGAP
 40
1.524
  9
$DIMJUST
 70
     0
  9
$DIMSD1
 70
     0
  9
$DIMSD2
 70
     0
  9
$DIMTOLJ
 70
     0
  9
$DIMTZIN
 70
     0
  9
$DIMALTZ
 70
     0
  9
$DIMALTTZ
 70
     0
  9
$DIMUPT
 70
     0
  9
$DIMDEC
 70
     2
  9
$DIMTDEC
 70
     2
  9
$DIMALTU
 70
     2
  9
$DIMALTTD
 70
     3
  9
$DIMTXSTY
  7
Standard
  9
$DIMAUNIT
 70
     0
  9
$DIMADEC
 70
     2
  9
$DIMALTRND
 40
0.0
  9
$DIMAZIN
 70
     0
  9
$DIMDSEP
 70
    44
  9
$DIMATFIT
 70
     3
  9
$DIMFRAC
 70
     0
  9
$DIMLDRBLK
  1

  9
$DIMLUNIT
 70
     2
  9
$DIMLWD
 70
    -2
  9
$DIMLWE
 70
    -2
  9
$DIMTMOVE
 70
     0
  9
$LUNITS
 70
     2
  9
$LUPREC
 70
     2
  9
$SKETCHINC
 40
1.0
  9
$FILLETRAD
 40
10.0
  9
$AUNITS
 70
     0
  9
$AUPREC
 70
     2
  9
$MENU
  1
.
  9
$ELEVATION
 40
0.0
  9
$PELEVATION
 40
0.0
  9
$THICKNESS
 40
0.0
  9
$LIMCHECK
 70
     0
  9
$CHAMFERA
 40
0.0
  9
$CHAMFERB
 40
0.0
  9
$CHAMFERC
 40
0.0
  9
$CHAMFERD
 40
0.0
  9
$SKPOLY
 70
     0
  9
$TDCREATE
 40
2458985.66597206
  9
$TDUCREATE
 40
2458985.54097206
  9
$TDUPDATE
 40
2458985.665972361
  9
$TDUUPDATE
 40
2458985.540972361
  9
$TDINDWG
 40
0.0000000116
  9
$TDUSRTIMER
 40
0.0000000116
  9
$USRTIMER
 70
     1
  9
$ANGBASE
 50
0.0
  9
$ANGDIR
 70
     0
  9
$PDMODE
 70
     0
  9
$PDSIZE
 40
-1.0
  9
$PLINEWID
 40
0.0
  9
$SPLFRAME
 70
     0
  9
$SPLINETYPE
 70
     6
  9
$SPLINESEGS
 70
     8
  9
$HANDSEED
  5
D2
  9
$SURFTAB1
 70
     6
  9
$SURFTAB2
 70
     6
  9
$SURFTYPE
 70
     6
  9
$SURFU
 70
     6
  9
$SURFV
 70
     6
  9
$UCSBASE
  2

  9
$UCSNAME
  2

  9
$UCSORG
 10
0.0
 20
0.0
 30
0.0
  9
$UCSXDIR
 10
1.0
 20
0.0
 30
0.0
  9
$UCSYDIR
 10
0.0
 20
1.0
 30
0.0
  9
$UCSORTHOREF
  2

  9
$UCSORTHOVIEW
 70
     0
  9
$UCSORGTOP
 10
0.0
 20
0.0
 30
0.0
  9
$UCSORGBOTTOM
 10
0.0
 20
0.0
 30
0.0
  9
$UCSORGLEFT
 10
0.0
 20
0.0
 30
0.0
  9
$UCSORGRIGHT
 10
0.0
 20
0.0
 30
0.0
  9
$UCSORGFRONT
 10
0.0
 20
0.0
 30
0.0
  9
$UCSORGBACK
 10
0.0
 20
0.0
 30
0.0
  9
$PUCSBASE
  2

  9
$PUCSNAME
  2

  9
$PUCSORG
 10
0.0
 20
0.0
 30
0.0
  9
$PUCSXDIR
 10
1.0
 20
0.0
 30
0.0
  9
$PUCSYDIR
 10
0.0
 20
1.0
 30
0.0
  9
$PUCSORTHOREF
  2

  9
$PUCSORTHOVIEW
 70
     0
  9
$PUCSORGTOP
 10
0.0
 20
0.0
 30
0.0
  9
$PUCSORGBOTTOM
 10
0.0
 20
0.0
 30
0.0
  9
$PUCSORGLEFT
 10
0.0
 20
0.0
 30
0.0
  9
$PUCSORGRIGHT
 10
0.0
 20
0.0
 30
0.0
  9
$PUCSORGFRONT
 10
0.0
 20
0.0
 30
0.0
  9
$PUCSORGBACK
 10
0.0
 20
0.0
 30
0.0
  9
$USERI1
 70
     0
  9
$USERI2
 70
     0
  9
$USERI3
 70
     0
  9
$USERI4
 70
     0
  9
$USERI5
 70
     0
  9
$USERR1
 40
0.0
  9
$USERR2
 40
0.0
  9
$USERR3
 40
0.0
  9
$USERR4
 40
0.0
  9
$USERR5
 40
0.0
  9
$WORLDVIEW
 70
     1
  9
$SHADEDGE
 70
     3
  9
$SHADEDIF
 70
    70
  9
$TILEMODE
 70
     1
  9
$MAXACTVP
 70
    64
  9
$PINSBASE
 10
0.0
 20
0.0
 30
0.0
  9
$PLIMCHECK
 70
     0
  9
$PEXTMIN
 10
1.0000000000E+20
 20
1.0000000000E+20
 30
1.0000000000E+20
  9
$PEXTMAX
 10
-1.0000000000E+20
 20
-1.0000000000E+20
 30
-1.0000000000E+20
  9
$PLIMMIN
 10
0.0
 20
0.0
  9
$PLIMMAX
 10
420.0
 20
297.0
  9
$UNITMODE
 70
     0
  9
$VISRETAIN
 70
     1
  9
$PLINEGEN
 70
     0
  9
$PSLTSCALE
 70
     1
  9
$TREEDEPTH
 70
  3020
  9
$CMLSTYLE
  2
Standard
  9
$CMLJUST
 70
     0
  9
$CMLSCALE
 40
20.0
  9
$PROXYGRAPHICS
 70
     1
  9
$MEASUREMENT
 70
     1
  9
$CELWEIGHT
370
    -1
  9
$ENDCAPS
280
     0
  9
$JOINSTYLE
280
     0
  9
$LWDISPLAY
290
     1
  9
$INSUNITS
 70
     4
  9
$HYPERLINKBASE
  1

  9
$STYLESHEET
  1

  9
$XEDIT
290
     1
  9
$CEPSNTYPE
380
     0
  9
$PSTYLEMODE
290
     1
  9
$FINGERPRINTGUID
  2
{db26caaa-20c1-4895-b0b6-6985619bba0a}
  9
$VERSIONGUID
  2
{FAEB1C32-E019-11D5-929B-00C0DF256EC4}
  9
$EXTNAMES
290
     1
  9
$PSVPSCALE
 40
0.0
  9
$OLESTARTUP
290
     0
  0
ENDSEC
  0
SECTION
  2
CLASSES
  0
CLASS
  1
ACDBDICTIONARYWDFLT
  2
AcDbDictionaryWithDefault
  3
ObjectDBX Classes
 90
        0
280
     0
281
     0
  0
CLASS
  1
VISUALSTYLE
  2
AcDbVisualStyle
  3
ObjectDBX Classes
 90
     4095
280
     0
281
     0
  0
CLASS
  1
MATERIAL
  2
AcDbMaterial
  3
ObjectDBX Classes
 90
     1153
280
     0
281
     0
  0
CLASS
  1
SCALE
  2
AcDbScale
  3
ObjectDBX Classes
 90
     1153
280
     0
281
     0
  0
CLASS
  1
TABLESTYLE
  2
AcDbTableStyle
  3
ObjectDBX Classes
 90
     4095
280
     0
281
     0
  0
CLASS
  1
MLEADERSTYLE
  2
AcDbMLeaderStyle
  3
ACDB_MLEADERSTYLE_CLASS
 90
     4095
280
     0
281
     0
  0
CLASS
  1
SUN
  2
AcDbSun
  3
SCENEOE
 90
     1153
280
     0
281
     0
  0
CLASS
  1
ACDBPLACEHOLDER
  2
AcDbPlaceHolder
  3
ObjectDBX Classes
 90
        0
280
     0
281
     0
  0
CLASS
  1
LAYOUT
  2
AcDbLayout
  3
ObjectDBX Classes
 90
        0
280
     0
281
     0
  0
ENDSEC
  0
SECTION
  2
TABLES
  0
TABLE
  2
VPORT
  5
8
330
0
100
AcDbSymbolTable
 70
     1
  0
VPORT
  5
29
330
8
100
AcDbSymbolTableRecord
100
AcDbViewportTableRecord
  2
*Active
 70
     0
 10
0.0
 20
0.0
 11
1.0
 21
1.0
 12
139.7
 22
107.95
 13
0.0
 23
0.0
 14
10.0
 24
10.0
 15
10.0
 25
10.0
 16
0.0
 26
0.0
 36
1.0
 17
0.0
 27
0.0
 37
0.0
 40
215.9
 41
1.2941176471
 42
50.0
 43
0.0
 44
0.0
 50
0.0
 51
0.0
 71
     0
 72
  2000
 73
     1
 74
     3
 75
     0
 76
     0
 77
     0
 78
     0
281
     0
 65
     1
110
0.0
120
0.0
130
0.0
111
1.0
121
0.0
131
0.0
112
0.0
122
1.0
132
0.0
 79
     0
146
0.0
  0
ENDTAB
  0
TABLE
  2
LTYPE
  5
5
330
0
100
AcDbSymbolTable
 70
     6
  0
LTYPE
  5
14
330
5
100
AcDbSymbolTableRecord
100
AcDbLinetypeTableRecord
  2
ByBlock
 70
     0
  3

 72
    65
 73
     0
 40
0.0
  0
LTYPE
  5
15
330
5
100
AcDbSymbolTableRecord
100
AcDbLinetypeTableRecord
  2
ByLayer
 70
     0
  3

 72
    65
 73
     0
 40
0.0
  0
LTYPE
  5
16
330
5
100
AcDbSymbolTableRecord
100
AcDbLinetypeTableRecord
  2
Continuous
 70
     0
  3
Solid line
 72
    65
 73
     0
 40
0.0
  0
LTYPE
  5
6E
330
5
100
AcDbSymbolTableRecord
100
AcDbLinetypeTableRecord
  2
HIDDEN
 70
     0
  3
Hidden __ __ __ __ __ __ __ __ __ __ __ __ __ __
 72
    65
 73
     2
 40
1.905
 49
1.27
 74
     0
 49
-0.635
 74
     0
  0
LTYPE
  5
6F
330
5
100
AcDbSymbolTableRecord
100
AcDbLinetypeTableRecord
  2
PHANTOM
 70
     0
  3
Phantom ______  __  __  ______  __  __  ______
 72
    65
 73
     6
 40
12.7
 49
6.35
 74
     0
 49
-1.27
 74
     0
 49
1.27
 74
     0
 49
-1.27
 74
     0
 49
1.27
 74
     0
 49
-1.27
 74
     0
  0
LTYPE
  5
70
330
5
100
AcDbSymbolTableRecord
100
AcDbLinetypeTableRecord
  2
CENTER
 70
     0
  3
Center ____ _ ____ _ ____ _ ____ _ ____ _ ____
 72
    65
 73
     4
 40
10.16
 49
6.35
 74
     0
 49
-1.27
 74
     0
 49
1.27
 74
     0
 49
-1.27
 74
     0
  0
LTYPE
  5
71
330
5
100
AcDbSymbolTableRecord
100
AcDbLinetypeTableRecord
  2
CENTERX2
 70
     0
  3
Center (2x) ________  __  ________  __  _____
 72
    65
 73
     4
 40
20.32
 49
12.7
 74
     0
 49
-2.54
 74
     0
 49
2.54
 74
     0
 49
-2.54
 74
     0
  0
LTYPE
  5
72
330
5
100
AcDbSymbolTableRecord
100
AcDbLinetypeTableRecord
  2
DOT2
 70
     0
  3
Dot (.5x) ........................................
 72
    65
 73
     2
 40
0.635
 49
0.0
 74
     0
 49
-0.635
 74
     0
  0
ENDTAB
  0
TABLE
  2
LAYER
  5
2
330
0
100
AcDbSymbolTable
 70
    17
  0
LAYER
  5
10
330
2
100
AcDbSymbolTableRecord
100
AcDbLayerTableRecord
  2
0
 70
     0
 62
     7
  6
Continuous
370
    -3
390
F
  0
LAYER
  5
73
330
2
100
AcDbSymbolTableRecord
100
AcDbLayerTableRecord
  2
FORMAT
 70
     0
 62
     7
  6
Continuous
370
    -3
390
F
  0
LAYER
  5
74
330
2
100
AcDbSymbolTableRecord
100
AcDbLayerTableRecord
  2
YARDIMCI_GEOMETRI
 70
     0
 62
    -6
  6
Continuous
290
     0
370
    -3
390
F
  0
LAYER
  5
75
330
2
100
AcDbSymbolTableRecord
100
AcDbLayerTableRecord
  2
SAYFA_CERCEVESI
 70
     0
 62
     7
  6
Continuous
370
    25
390
F
  0
LAYER
  5
76
330
2
100
AcDbSymbolTableRecord
100
AcDbLayerTableRecord
  2
ANTET
 70
     0
 62
     7
  6
Continuous
370
    -3
390
F
  0
LAYER
  5
77
330
2
100
AcDbSymbolTableRecord
100
AcDbLayerTableRecord
  2
OLCU
 70
     0
 62
   150
  6
Continuous
370
    -3
390
F
  0
LAYER
  5
78
330
2
100
AcDbSymbolTableRecord
100
AcDbLayerTableRecord
  2
METIN
 70
     0
 62
    96
  6
Continuous
370
    -3
390
F
  0
LAYER
  5
79
330
2
100
AcDbSymbolTableRecord
100
AcDbLayerTableRecord
  2
BALON
 70
     0
 62
     5
  6
Continuous
370
    -3
390
F
  0
LAYER
  5
7A
330
2
100
AcDbSymbolTableRecord
100
AcDbLayerTableRecord
  2
VURGU
 70
     0
 62
     7
  6
Continuous
370
    -3
390
F
  0
LAYER
  5
7B
330
2
100
AcDbSymbolTableRecord
100
AcDbLayerTableRecord
  2
SILIK
 70
     0
 62
     7
  6
Continuous
370
    -3
390
F
  0
LAYER
  5
7C
330
2
100
AcDbSymbolTableRecord
100
AcDbLayerTableRecord
  2
MODEL
 70
     0
 62
     7
  6
Continuous
370
    -3
390
F
  0
LAYER
  5
7D
330
2
100
AcDbSymbolTableRecord
100
AcDbLayerTableRecord
  2
DETAYLANDıRMA
 70
     0
 62
   190
  6
Continuous
370
    -3
390
F
  0
LAYER
  5
7E
330
2
100
AcDbSymbolTableRecord
100
AcDbLayerTableRecord
  2
TOLERANS
 70
     0
 62
   230
  6
Continuous
370
    -3
390
F
  0
LAYER
  5
7F
330
2
100
AcDbSymbolTableRecord
100
AcDbLayerTableRecord
  2
MERKEZ_CIZGILERI
 70
     0
 62
    30
  6
Continuous
370
    -3
390
F
  0
LAYER
  5
80
330
2
100
AcDbSymbolTableRecord
100
AcDbLayerTableRecord
  2
KESIT-DETAY_CIZGILERI
 70
     0
 62
     7
  6
Continuous
370
    -3
390
F
  0
LAYER
  5
81
330
2
100
AcDbSymbolTableRecord
100
AcDbLayerTableRecord
  2
\U+041E\U+0421\U+0415\U+0412\U+042B\U+0415
 70
     0
 62
     7
  6
Continuous
370
    -3
390
F
  0
LAYER
  5
82
330
2
100
AcDbSymbolTableRecord
100
AcDbLayerTableRecord
  2
\U+0412\U+041E\U+0414\U+042F\U+041D\U+042B\U+0415_\U+0417\U+041D\U+0410\U+041A\U+0418
 70
     0
 62
    11
  6
Continuous
370
    -3
390
F
  0
ENDTAB
  0
TABLE
  2
STYLE
  5
3
330
0
100
AcDbSymbolTable
 70
     1
  0
STYLE
  5
11
330
3
100
AcDbSymbolTableRecord
100
AcDbTextStyleTableRecord
  2
Standard
 70
     0
 40
0.0
 41
1.0
 50
0.0
 71
     0
 42
3.5
  3
txt
  4

  0
ENDTAB
  0
TABLE
  2
VIEW
  5
6
330
0
100
AcDbSymbolTable
 70
     0
  0
ENDTAB
  0
TABLE
  2
UCS
  5
7
330
0
100
AcDbSymbolTable
 70
     0
  0
ENDTAB
  0
TABLE
  2
APPID
  5
9
330
0
100
AcDbSymbolTable
 70
     1
  0
APPID
  5
12
330
9
100
AcDbSymbolTableRecord
100
AcDbRegAppTableRecord
  2
ACAD
 70
     0
  0
ENDTAB
  0
TABLE
  2
DIMSTYLE
  5
A
330
0
100
AcDbSymbolTable
 70
     1
100
AcDbDimStyleTable
  0
DIMSTYLE
105
27
330
A
100
AcDbSymbolTableRecord
100
AcDbDimStyleTableRecord
  2
ISO-25
 70
     0
 41
2.5
 42
0.625
 43
3.75
 44
1.25
 73
     0
 74
     0
 77
     1
 78
     8
140
2.5
141
2.5
143
0.0393700787
147
0.625
171
     3
172
     1
178
     0
271
     2
272
     2
274
     3
278
    44
283
     0
284
     8
340
11
  0
ENDTAB
  0
TABLE
  2
BLOCK_RECORD
  5
1
330
0
100
AcDbSymbolTable
 70
     3
  0
BLOCK_RECORD
  5
1F
330
1
100
AcDbSymbolTableRecord
100
AcDbBlockTableRecord
  2
*Model_Space
340
22
  0
BLOCK_RECORD
  5
1B
330
1
100
AcDbSymbolTableRecord
100
AcDbBlockTableRecord
  2
*Paper_Space
340
1E
  0
BLOCK_RECORD
  5
23
330
1
100
AcDbSymbolTableRecord
100
AcDbBlockTableRecord
  2
*Paper_Space0
340
26
  0
BLOCK_RECORD
  5
93
330
1
100
AcDbSymbolTableRecord
100
AcDbBlockTableRecord
  2
SW_CENTERMARKSYMBOL_0
340
0
102
{BLKREFS
331
9E
102
}
  0
BLOCK_RECORD
  5
A5
330
1
100
AcDbSymbolTableRecord
100
AcDbBlockTableRecord
  2
SW_CENTERMARKSYMBOL_1
340
0
102
{BLKREFS
331
B0
102
}
  0
ENDTAB
  0
ENDSEC
  0
SECTION
  2
BLOCKS
  0
BLOCK
  5
20
330
1F
100
AcDbEntity
  8
0
100
AcDbBlockBegin
  2
*Model_Space
 70
     0
 10
0.0
 20
0.0
 30
0.0
  3
*Model_Space
  1

  0
ENDBLK
  5
21
330
1F
100
AcDbEntity
  8
0
100
AcDbBlockEnd
  0
BLOCK
  5
1C
330
1B
100
AcDbEntity
 67
     1
  8
0
100
AcDbBlockBegin
  2
*Paper_Space
 70
     0
 10
0.0
 20
0.0
 30
0.0
  3
*Paper_Space
  1

  0
ENDBLK
  5
1D
330
1B
100
AcDbEntity
 67
     1
  8
0
100
AcDbBlockEnd
  0
BLOCK
  5
24
330
23
100
AcDbEntity
  8
0
100
AcDbBlockBegin
  2
*Paper_Space0
 70
     0
 10
0.0
 20
0.0
 30
0.0
  3
*Paper_Space0
  1

  0
ENDBLK
  5
25
330
23
100
AcDbEntity
  8
0
100
AcDbBlockEnd
  0
BLOCK
  5
94
330
93
100
AcDbEntity
  8
0
100
AcDbBlockBegin
  2
SW_CENTERMARKSYMBOL_0
 70
     0
 10
0.0
 20
0.0
 30
0.0
  3
SW_CENTERMARKSYMBOL_0
  1

  0
LINE
  5
96
330
93
100
AcDbEntity
  8
FORMAT
 62
     0
100
AcDbLine
 10
0.0
 20
0.0
 30
0.0
 11
0.0
 21
2.5
 31
0.0
  0
LINE
  5
97
330
93
100
AcDbEntity
  8
FORMAT
 62
     0
100
AcDbLine
 10
0.0
 20
0.0
 30
0.0
 11
-2.5
 21
0.0
 31
0.0
  0
LINE
  5
98
330
93
100
AcDbEntity
  8
FORMAT
 62
     0
100
AcDbLine
 10
0.0
 20
0.0
 30
0.0
 11
0.0
 21
-2.5
 31
0.0
  0
LINE
  5
99
330
93
100
AcDbEntity
  8
FORMAT
 62
     0
100
AcDbLine
 10
0.0
 20
0.0
 30
0.0
 11
2.5
 21
0.0
 31
0.0
  0
LINE
  5
9A
330
93
100
AcDbEntity
  8
FORMAT
 62
     0
100
AcDbLine
 10
0.0
 20
5.0
 30
0.0
 11
0.0
 21
92.5
 31
0.0
  0
LINE
  5
9B
330
93
100
AcDbEntity
  8
FORMAT
 62
     0
100
AcDbLine
 10
-5.0
 20
0.0
 30
0.0
 11
-92.5
 21
0.0
 31
0.0
  0
LINE
  5
9C
330
93
100
AcDbEntity
  8
FORMAT
 62
     0
100
AcDbLine
 10
0.0
 20
-5.0
 30
0.0
 11
0.0
 21
-92.5
 31
0.0
  0
LINE
  5
9D
330
93
100
AcDbEntity
  8
FORMAT
 62
     0
100
AcDbLine
 10
5.0
 20
0.0
 30
0.0
 11
92.5
 21
0.0
 31
0.0
  0
ENDBLK
  5
95
330
93
100
AcDbEntity
  8
0
100
AcDbBlockEnd
  0
BLOCK
  5
A6
330
A5
100
AcDbEntity
  8
0
100
AcDbBlockBegin
  2
SW_CENTERMARKSYMBOL_1
 70
     0
 10
0.0
 20
0.0
 30
0.0
  3
SW_CENTERMARKSYMBOL_1
  1

  0
LINE
  5
A8
330
A5
100
AcDbEntity
  8
FORMAT
 62
     0
100
AcDbLine
 10
0.0
 20
0.0
 30
0.0
 11
0.0
 21
2.5
 31
0.0
  0
LINE
  5
A9
330
A5
100
AcDbEntity
  8
FORMAT
 62
     0
100
AcDbLine
 10
0.0
 20
0.0
 30
0.0
 11
-2.5
 21
0.0
 31
0.0
  0
LINE
  5
AA
330
A5
100
AcDbEntity
  8
FORMAT
 62
     0
100
AcDbLine
 10
0.0
 20
0.0
 30
0.0
 11
0.0
 21
-2.5
 31
0.0
  0
LINE
  5
AB
330
A5
100
AcDbEntity
  8
FORMAT
 62
     0
100
AcDbLine
 10
0.0
 20
0.0
 30
0.0
 11
2.5
 21
0.0
 31
0.0
  0
LINE
  5
AC
330
A5
100
AcDbEntity
  8
FORMAT
 62
     0
100
AcDbLine
 10
0.0
 20
5.0
 30
0.0
 11
0.0
 21
92.5
 31
0.0
  0
LINE
  5
AD
330
A5
100
AcDbEntity
  8
FORMAT
 62
     0
100
AcDbLine
 10
-5.0
 20
0.0
 30
0.0
 11
-92.5
 21
0.0
 31
0.0
  0
LINE
  5
AE
330
A5
100
AcDbEntity
  8
FORMAT
 62
     0
100
AcDbLine
 10
0.0
 20
-5.0
 30
0.0
 11
0.0
 21
-92.5
 31
0.0
  0
LINE
  5
AF
330
A5
100
AcDbEntity
  8
FORMAT
 62
     0
100
AcDbLine
 10
5.0
 20
0.0
 30
0.0
 11
92.5
 21
0.0
 31
0.0
  0
ENDBLK
  5
A7
330
A5
100
AcDbEntity
  8
0
100
AcDbBlockEnd
  0
ENDSEC
  0
SECTION
  2
ENTITIES
  0
LINE
  5
83
330
1F
100
AcDbEntity
  8
0
  6
Continuous
 62
     7
370
    25
100
AcDbLine
 10
49.2552275178
 20
272.0310314521
 30
0.0
 11
49.2552275178
 21
-6.5690503493
 31
0.0
  0
LINE
  5
84
330
1F
100
AcDbEntity
  8
0
  6
Continuous
 62
     7
370
    25
100
AcDbLine
 10
229.2552346704
 20
-6.5690503493
 30
0.0
 11
229.2552346704
 21
272.0310314521
 31
0.0
  0
LINE
  5
85
330
1F
100
AcDbEntity
  8
0
  6
Continuous
 62
     7
370
    25
100
AcDbLine
 10
229.2552346704
 20
272.0310314521
 30
0.0
 11
229.2552346704
 21
387.4309583529
 31
0.0
  0
LINE
  5
86
330
1F
100
AcDbEntity
  8
0
  6
Continuous
 62
     7
370
    25
100
AcDbLine
 10
229.2552346704
 20
-190.569050707
 30
0.0
 11
229.2552346704
 21
-6.5690503493
 31
0.0
  0
LINE
  5
87
330
1F
100
AcDbEntity
  8
0
  6
Continuous
 62
     7
370
    25
100
AcDbLine
 10
49.2552275178
 20
-6.5690503493
 30
0.0
 11
49.2552275178
 21
-190.569050707
 31
0.0
  0
LINE
  5
88
330
1F
100
AcDbEntity
  8
0
  6
Continuous
 62
     7
370
    25
100
AcDbLine
 10
49.2552275178
 20
387.4309583529
 30
0.0
 11
49.2552275178
 21
272.0310314521
 31
0.0
  0
LWPOLYLINE
  5
89
330
1F
100
AcDbEntity
  8
0
  6
Continuous
 62
     7
370
    25
100
AcDbPolyline
 90
       92
 70
   128
 43
0.0
 10
139.2552310941
 20
324.0740819796
 10
134.1774830003
 20
323.9501043185
 10
129.1239325297
 20
323.5786481723
 10
124.118662287
 20
322.9615612849
 10
119.1855239091
 20
322.1018238887
 10
114.3480277029
 20
321.0034294947
 10
109.6292266962
 20
319.6716829165
 10
105.0516048786
 20
318.1128426417
 10
100.6369794128
 20
316.3344784602
 10
96.4063907382
 20
314.3449350222
 10
92.3799926755
 20
312.1538086757
 10
88.5769779203
 20
309.771411024
 10
85.0154662845
 20
307.209186159
 10
81.7124339161
 20
304.4793232306
 10
78.6836201665
 20
301.5948458537
 10
75.9434530852
 20
298.5694630965
 10
73.5049972651
 20
295.4176290854
 10
71.379875612
 20
292.1543343886
 10
69.5782060144
 20
288.7951656207
 10
68.1085789916
 20
285.3560670241
 10
66.9780055401
 20
281.8534894809
 10
66.1918575284
 20
278.3041222915
 10
65.7538900492
 20
274.7248335704
 10
65.6661967156
 20
271.1327298507
 10
65.9291798589
 20
267.5448878631
 10
66.5416026828
 20
263.9784439429
 10
67.5005371091
 20
260.4503556117
 10
68.8014159319
 20
256.9774611815
 10
70.4380328176
 20
253.5763009414
 10
72.4026019094
 20
250.2630873546
 10
74.6857503769
 20
247.053615652
 10
77.2766078231
 20
243.9631446227
 10
80.1628137347
 20
241.0064562186
 10
83.3306255159
 20
238.1976171359
 10
86.764944565
 20
235.5500086173
 10
90.4494019565
 20
233.0762370452
 10
94.3664441225
 20
230.7881041392
 10
98.497399908
 20
228.6965175494
 10
102.8225848791
 20
226.8114312514
 10
107.3213870046
 20
225.1418455466
 10
111.972370964
 20
223.6957176551
 10
116.7533694175
 20
222.4799021109
 10
121.6415984896
 20
221.5002401694
 10
126.6137648714
 20
220.7613809928
 10
131.6461738539
 20
220.2668412551
 10
136.7148431824
 20
220.0189753398
 10
141.7956190058
 20
220.0189753398
 10
146.8642883343
 20
220.2668412551
 10
151.8966973168
 20
220.7613809928
 10
156.8688636986
 20
221.5002401694
 10
161.7570927707
 20
222.4799021109
 10
166.5380912242
 20
223.6957176551
 10
171.1890751836
 20
225.1418455466
 10
175.6878773091
 20
226.8114312514
 10
180.0130622801
 20
228.6965175494
 10
184.1440180657
 20
230.7881041392
 10
188.0610602317
 20
233.0762370452
 10
191.7455176232
 20
235.5500086173
 10
195.1798366723
 20
238.1976171359
 10
198.3476484534
 20
241.0064562186
 10
201.2338543651
 20
243.9631446227
 10
203.8247118113
 20
247.053615652
 10
206.1078602788
 20
250.2630873546
 10
208.0724293706
 20
253.5763009414
 10
209.7090462563
 20
256.9774611815
 10
211.0099250791
 20
260.4503556117
 10
211.9688595054
 20
263.9784439429
 10
212.5812823293
 20
267.5448878631
 10
212.8442654726
 20
271.1327298507
 10
212.756572139
 20
274.7248335704
 10
212.3186046598
 20
278.3041222915
 10
211.5324566481
 20
281.8534894809
 10
210.4018831966
 20
285.3560670241
 10
208.9322561738
 20
288.7951656207
 10
207.1305865762
 20
292.1543343886
 10
205.0054649231
 20
295.4176290854
 10
202.567009103
 20
298.5694630965
 10
199.8268420217
 20
301.5948458537
 10
196.7980282721
 20
304.4793232306
 10
193.4949959037
 20
307.209186159
 10
189.9334842679
 20
309.771411024
 10
186.1304695127
 20
312.1538086757
 10
182.10407145
 20
314.3449350222
 10
177.8734827754
 20
316.3344784602
 10
173.4588573096
 20
318.1128426417
 10
168.881235492
 20
319.6716829165
 10
164.1624344853
 20
321.0034294947
 10
159.3249382791
 20
322.1018238887
 10
154.3917999012
 20
322.9615612849
 10
149.3865296585
 20
323.5786481723
 10
144.3329791878
 20
323.9501043185
 10
139.2552310941
 20
324.0740819796
  0
LWPOLYLINE
  5
8A
330
1F
100
AcDbEntity
  8
0
  6
Continuous
 62
     7
370
    25
100
AcDbPolyline
 90
      101
 70
   128
 43
0.0
 10
139.2552310941
 20
335.6706424579
 10
133.604084455
 20
335.5450554713
 10
127.9752401975
 20
335.1688309535
 10
122.3909126935
 20
334.5433994159
 10
116.8731412259
 20
333.6712642535
 10
111.4437019793
 20
332.5558825358
 10
106.1240228233
 20
331.2016054019
 10
100.9350957689
 20
329.6138568744
 10
95.8974005995
 20
327.7988358363
 10
91.0308191893
 20
325.7636948451
 10
86.3545591352
 20
323.5165401324
 10
81.8870718
 20
321.0661931857
 10
77.6459927079
 20
318.4223099574
 10
73.6480558631
 20
315.5953212603
 10
69.9090415952
 20
312.5964327678
 10
66.4437020538
 20
309.4374461993
 10
63.2657165048
 20
306.1308189257
 10
60.387631726
 20
302.6896341666
 10
57.8207949516
 20
299.1274519786
 10
55.5753464219
 20
295.4583390578
 10
53.6601448772
 20
291.6967495307
 10
52.0827452061
 20
287.8575547561
 10
50.8493760941
 20
283.9558943137
 10
49.9649102208
 20
280.0071760043
 10
49.4328270075
 20
276.0269864425
 10
49.2552275178
 20
272.0310314521
 10
49.4328270075
 20
268.0350466594
 10
49.9649102208
 20
264.0548570975
 10
50.8493760941
 20
260.1061387881
 10
52.0827452061
 20
256.2045081481
 10
53.6601448772
 20
252.3653133735
 10
55.5753464219
 20
248.6037238463
 10
57.8207949516
 20
244.9345811232
 10
60.387631726
 20
241.3723989352
 10
63.2657165048
 20
237.9312141761
 10
66.4437020538
 20
234.6245869025
 10
69.9090415952
 20
231.4656003341
 10
73.6480558631
 20
228.4667118415
 10
77.6459927079
 20
225.6397529467
 10
81.8870718
 20
222.9958697184
 10
86.3545591352
 20
220.5454929694
 10
91.0308191893
 20
218.2983084544
 10
95.8974005995
 20
216.2631972655
 10
100.9350957689
 20
214.4481762275
 10
106.1240228233
 20
212.8603978976
 10
111.4437019793
 20
211.506150566
 10
116.8731412259
 20
210.3907688483
 10
122.3909126935
 20
209.518633686
 10
127.9752401975
 20
208.8932319507
 10
133.604084455
 20
208.5169776305
 10
139.2552310941
 20
208.3914204463
 10
144.9063777332
 20
208.5169776305
 10
150.5352219907
 20
208.8932319507
 10
156.1195494947
 20
209.518633686
 10
161.6373209623
 20
210.3907688483
 10
167.0667602089
 20
211.506150566
 10
172.3864393649
 20
212.8603978976
 10
177.5753664193
 20
214.4481762275
 10
182.6130615887
 20
216.2631972655
 10
187.4796429989
 20
218.2983084544
 10
192.155903053
 20
220.5454929694
 10
196.6233903882
 20
222.9958697184
 10
200.8644694802
 20
225.6397529467
 10
204.8624063251
 20
228.4667118415
 10
208.601420593
 20
231.4656003341
 10
212.0667601344
 20
234.6245869025
 10
215.2447456834
 20
237.9312141761
 10
218.1228304622
 20
241.3723989352
 10
220.6896672365
 20
244.9345811232
 10
222.9351157663
 20
248.6037238463
 10
224.850317311
 20
252.3653133735
 10
226.4277169821
 20
256.2045081481
 10
227.6610860941
 20
260.1061387881
 10
228.5455519674
 20
264.0548570975
 10
229.0776351807
 20
268.0350466594
 10
229.2552346704
 20
272.0310314521
 10
229.0776351807
 20
276.0269864425
 10
228.5455519674
 20
280.0071760043
 10
227.6610860941
 20
283.9558943137
 10
226.4277169821
 20
287.8575547561
 10
224.850317311
 20
291.6967495307
 10
222.9351157663
 20
295.4583390578
 10
220.6896672365
 20
299.1274519786
 10
218.1228304622
 20
302.6896341666
 10
215.2447456834
 20
306.1308189257
 10
212.0667601344
 20
309.4374461993
 10
208.601420593
 20
312.5964327678
 10
204.8624063251
 20
315.5953212603
 10
200.8644694802
 20
318.4223099574
 10
196.6233903882
 20
321.0661931857
 10
192.155903053
 20
323.5165401324
 10
187.4796429989
 20
325.7636948451
 10
182.6130615887
 20
327.7988358363
 10
177.5753664193
 20
329.6138568744
 10
172.3864393649
 20
331.2016054019
 10
167.0667602089
 20
332.5558825358
 10
161.6373209623
 20
333.6712642535
 10
156.1195494947
 20
334.5433994159
 10
150.5352219907
 20
335.1688309535
 10
144.9063777332
 20
335.5450554713
 10
139.2552310941
 20
335.6706424579
  0
ELLIPSE
  5
8B
330
1F
100
AcDbEntity
  8
0
  6
Continuous
 62
     7
370
    25
100
AcDbEllipse
 10
139.2552310941
 20
-6.569050707
 30
0.0
 11
89.99999999999997
 21
0.0
 31
0.0
210
0.0
220
0.0
230
1.0
 40
0.4142135624
 41
3.141592653589827
 42
6.283185307179586
  0
LINE
  5
8C
330
1F
100
AcDbEntity
  8
0
  6
Continuous
 62
     7
370
    25
100
AcDbLine
 10
49.2552275178
 20
-190.569050707
 30
0.0
 11
229.2552346704
 21
-190.569050707
 31
0.0
  0
LINE
  5
8D
330
1F
100
AcDbEntity
  8
0
  6
Continuous
 62
     7
370
    25
100
AcDbLine
 10
49.2552275178
 20
387.4309583529
 30
0.0
 11
229.2552346704
 21
387.4309583529
 31
0.0
  0
LINE
  5
8E
330
1F
100
AcDbEntity
  8
0
  6
Continuous
 62
     7
370
    25
100
AcDbLine
 10
49.2552275178
 20
-427.2202755481
 30
0.0
 11
49.2552275178
 21
-705.8203424483
 31
0.0
  0
LINE
  5
8F
330
1F
100
AcDbEntity
  8
0
  6
Continuous
 62
     7
370
    25
100
AcDbLine
 10
229.2552346704
 20
-705.8203424483
 30
0.0
 11
229.2552346704
 21
-427.2202755481
 31
0.0
  0
CIRCLE
  5
90
330
1F
100
AcDbEntity
  8
0
  6
Continuous
 62
     7
370
    25
100
AcDbCircle
 10
139.2552310941
 20
-705.8203424483
 30
0.0
 40
73.60000000000001
  0
CIRCLE
  5
91
330
1F
100
AcDbEntity
  8
0
  6
Continuous
 62
     7
370
    25
100
AcDbCircle
 10
139.2552310941
 20
-705.8203424483
 30
0.0
 40
90.00000000000001
  0
LWPOLYLINE
  5
92
330
1F
100
AcDbEntity
  8
0
  6
Continuous
 62
     7
370
    25
100
AcDbPolyline
 90
       51
 70
   128
 43
0.0
 10
49.2552275178
 20
-427.2202755481
 10
49.4328270075
 20
-423.2243205577
 10
49.9649102208
 20
-419.2441011935
 10
50.8493760941
 20
-415.2953828841
 10
52.0827452061
 20
-411.3937522441
 10
53.6601448772
 20
-407.5545574695
 10
55.5753464219
 20
-403.7929679423
 10
57.8207949516
 20
-400.1238550216
 10
60.387631726
 20
-396.5616430312
 10
63.2657165048
 20
-393.1204582721
 10
66.4437020538
 20
-389.8138608008
 10
69.9090415952
 20
-386.6548444301
 10
73.6480558631
 20
-383.6559559375
 10
77.6459927079
 20
-380.8289970428
 10
81.8870718
 20
-378.1851138145
 10
86.3545591352
 20
-375.7347370654
 10
91.0308191893
 20
-373.4875823527
 10
95.8974005995
 20
-371.4524413615
 10
100.9350957689
 20
-369.6374203235
 10
106.1240228233
 20
-368.0496717959
 10
111.4437019793
 20
-366.695394662
 10
116.8731412259
 20
-365.5800129443
 10
122.3909126935
 20
-364.7079075843
 10
127.9752401975
 20
-364.0824760467
 10
133.604084455
 20
-363.7062515288
 10
139.2552310941
 20
-363.5806645423
 10
144.9063777332
 20
-363.7062515288
 10
150.5352219907
 20
-364.0824760467
 10
156.1195494947
 20
-364.7079075843
 10
161.6373209623
 20
-365.5800129443
 10
167.0667602089
 20
-366.695394662
 10
172.3864393649
 20
-368.0496717959
 10
177.5753664193
 20
-369.6374203235
 10
182.6130615887
 20
-371.4524413615
 10
187.4796429989
 20
-373.4875823527
 10
192.155903053
 20
-375.7347370654
 10
196.6233903882
 20
-378.1851138145
 10
200.8644694802
 20
-380.8289970428
 10
204.8624063251
 20
-383.6559559375
 10
208.601420593
 20
-386.6548444301
 10
212.0667601344
 20
-389.8138608008
 10
215.2447456834
 20
-393.1204582721
 10
218.1228304622
 20
-396.5616430312
 10
220.6896672365
 20
-400.1238550216
 10
222.9351157663
 20
-403.7929679423
 10
224.850317311
 20
-407.5545574695
 10
226.4277169821
 20
-411.3937522441
 10
227.6610860941
 20
-415.2953828841
 10
228.5455519674
 20
-419.2441011935
 10
229.0776351807
 20
-423.2243205577
 10
229.2552346704
 20
-427.2202755481
  0
INSERT
  5
9E
330
1F
100
AcDbEntity
  8
FORMAT
100
AcDbBlockReference
  2
SW_CENTERMARKSYMBOL_0
 10
139.2552310941
 20
-705.8203424483
 30
0.0
  0
LINE
  5
9F
330
1F
100
AcDbEntity
  8
0
  6
Continuous
 62
     7
370
    25
100
AcDbLine
 10
229.2552346704
 20
571.8578586851
 30
0.0
 11
229.2552346704
 21
850.4579255853
 31
0.0
  0
LINE
  5
A0
330
1F
100
AcDbEntity
  8
0
  6
Continuous
 62
     7
370
    25
100
AcDbLine
 10
49.2552275178
 20
850.4579255853
 30
0.0
 11
49.2552275178
 21
571.8578586851
 31
0.0
  0
CIRCLE
  5
A1
330
1F
100
AcDbEntity
  8
0
  6
Continuous
 62
     7
370
    25
100
AcDbCircle
 10
139.2552310941
 20
850.4579255853
 30
0.0
 40
73.60000000000001
  0
CIRCLE
  5
A2
330
1F
100
AcDbEntity
  8
0
  6
Continuous
 62
     7
370
    25
100
AcDbCircle
 10
139.2552310941
 20
850.4579255853
 30
0.0
 40
90.00000000000001
  0
LWPOLYLINE
  5
A3
330
1F
100
AcDbEntity
  8
0
  6
Continuous
 62
     7
370
    25
100
AcDbPolyline
 90
      101
 70
   128
 43
0.0
 10
139.2552310941
 20
635.4974696909
 10
133.604084455
 20
635.3718827043
 10
127.9752401975
 20
634.9956432853
 10
122.3909126935
 20
634.3702266489
 10
116.8731412259
 20
633.4981063877
 10
111.4437019793
 20
632.38272467
 10
106.1240228233
 20
631.0284624372
 10
100.9350957689
 20
629.4406990085
 10
95.8974005995
 20
627.6256630693
 10
91.0308191893
 20
625.5905518804
 10
86.3545591352
 20
623.3433822666
 10
81.8870718
 20
620.8930204187
 10
77.6459927079
 20
618.2491371904
 10
73.6480558631
 20
615.4221633945
 10
69.9090415952
 20
612.4232749019
 10
66.4437020538
 20
609.2642734323
 10
63.2657165048
 20
605.9576610599
 10
60.387631726
 20
602.5164763008
 10
57.8207949516
 20
598.9542792116
 10
55.5753464219
 20
595.2851662908
 10
53.6601448772
 20
591.5235767637
 10
52.0827452061
 20
587.6843819891
 10
50.8493760941
 20
583.7827215467
 10
49.9649102208
 20
579.8340032373
 10
49.4328270075
 20
575.8538136755
 10
49.2552275178
 20
571.8578586851
 10
49.4328270075
 20
567.8619036947
 10
49.9649102208
 20
563.8816843305
 10
50.8493760941
 20
559.9329660211
 10
52.0827452061
 20
556.0313353811
 10
53.6601448772
 20
552.1921406065
 10
55.5753464219
 20
548.4305510793
 10
57.8207949516
 20
544.7614381586
 10
60.387631726
 20
541.1992261682
 10
63.2657165048
 20
537.7580414091
 10
66.4437020538
 20
534.4514439378
 10
69.9090415952
 20
531.2924275671
 10
73.6480558631
 20
528.2935390745
 10
77.6459927079
 20
525.4665801798
 10
81.8870718
 20
522.8226969515
 10
86.3545591352
 20
520.3723202024
 10
91.0308191893
 20
518.1251654897
 10
95.8974005995
 20
516.0900244985
 10
100.9350957689
 20
514.2750034605
 10
106.1240228233
 20
512.6872549329
 10
111.4437019793
 20
511.332977799
 10
116.8731412259
 20
510.2175960813
 10
122.3909126935
 20
509.3454907213
 10
127.9752401975
 20
508.7200591837
 10
133.604084455
 20
508.3438346658
 10
139.2552310941
 20
508.2182476793
 10
144.9063777332
 20
508.3438346658
 10
150.5352219907
 20
508.7200591837
 10
156.1195494947
 20
509.3454907213
 10
161.6373209623
 20
510.2175960813
 10
167.0667602089
 20
511.332977799
 10
172.3864393649
 20
512.6872549329
 10
177.5753664193
 20
514.2750034605
 10
182.6130615887
 20
516.0900244985
 10
187.4796429989
 20
518.1251654897
 10
192.155903053
 20
520.3723202024
 10
196.6233903882
 20
522.8226969515
 10
200.8644694802
 20
525.4665801798
 10
204.8624063251
 20
528.2935390745
 10
208.601420593
 20
531.2924275671
 10
212.0667601344
 20
534.4514439378
 10
215.2447456834
 20
537.7580414091
 10
218.1228304622
 20
541.1992261682
 10
220.6896672365
 20
544.7614381586
 10
222.9351157663
 20
548.4305510793
 10
224.850317311
 20
552.1921406065
 10
226.4277169821
 20
556.0313353811
 10
227.6610860941
 20
559.9329660211
 10
228.5455519674
 20
563.8816843305
 10
229.0776351807
 20
567.8619036947
 10
229.2552346704
 20
571.8578586851
 10
229.0776351807
 20
575.8538136755
 10
228.5455519674
 20
579.8340032373
 10
227.6610860941
 20
583.7827215467
 10
226.4277169821
 20
587.6843819891
 10
224.850317311
 20
591.5235767637
 10
222.9351157663
 20
595.2851662908
 10
220.6896672365
 20
598.9542792116
 10
218.1228304622
 20
602.5164763008
 10
215.2447456834
 20
605.9576610599
 10
212.0667601344
 20
609.2642734323
 10
208.601420593
 20
612.4232749019
 10
204.8624063251
 20
615.4221633945
 10
200.8644694802
 20
618.2491371904
 10
196.6233903882
 20
620.8930204187
 10
192.155903053
 20
623.3433822666
 10
187.4796429989
 20
625.5905518804
 10
182.6130615887
 20
627.6256630693
 10
177.5753664193
 20
629.4406990085
 10
172.3864393649
 20
631.0284624372
 10
167.0667602089
 20
632.38272467
 10
161.6373209623
 20
633.4981063877
 10
156.1195494947
 20
634.3702266489
 10
150.5352219907
 20
634.9956432853
 10
144.9063777332
 20
635.3718827043
 10
139.2552310941
 20
635.4974696909
  0
LWPOLYLINE
  5
A4
330
1F
100
AcDbEntity
  8
0
  6
Continuous
 62
     7
370
    25
100
AcDbPolyline
 90
       92
 70
   128
 43
0.0
 10
139.2552310941
 20
623.9009092127
 10
134.1774830003
 20
623.7769017492
 10
129.1239325297
 20
623.4054903064
 10
124.118662287
 20
622.7884183202
 10
119.1855239091
 20
621.9286362205
 10
114.3480277029
 20
620.8302567278
 10
109.6292266962
 20
619.4984803472
 10
105.0516048786
 20
617.9396996771
 10
100.6369794128
 20
616.1613056932
 10
96.4063907382
 20
614.1717771564
 10
92.3799926755
 20
611.9806210075
 10
88.5769779203
 20
609.5982531582
 10
85.0154662845
 20
607.0360282932
 10
81.7124339161
 20
604.3061653648
 10
78.6836201665
 20
601.4216879879
 10
75.9434530852
 20
598.3963201318
 10
73.5049972651
 20
595.2444563184
 10
71.379875612
 20
591.9811616216
 10
69.5782060144
 20
588.6219928537
 10
68.1085789916
 20
585.1829240595
 10
66.9780055401
 20
581.6803465162
 10
66.1918575284
 20
578.1309495245
 10
65.7538900492
 20
574.5516608034
 10
65.6661967156
 20
570.9595570837
 10
65.9291798589
 20
567.3717150961
 10
66.5416026828
 20
563.8052711759
 10
67.5005371091
 20
560.2771828447
 10
68.8014159319
 20
556.8042884145
 10
70.4380328176
 20
553.4031281744
 10
72.4026019094
 20
550.0899145876
 10
74.6857503769
 20
546.880442885
 10
77.2766078231
 20
543.790001658
 10
80.1628137347
 20
540.8332834516
 10
83.3306255159
 20
538.0244443689
 10
86.764944565
 20
535.3768358503
 10
90.4494019565
 20
532.9030642782
 10
94.3664441225
 20
530.6149313722
 10
98.497399908
 20
528.5233447824
 10
102.8225848791
 20
526.6382584844
 10
107.3213870046
 20
524.9686727796
 10
111.972370964
 20
523.5225448881
 10
116.7533694175
 20
522.306729344
 10
121.6415984896
 20
521.3270674024
 10
126.6137648714
 20
520.5882082258
 10
131.6461738539
 20
520.0936684881
 10
136.7148431824
 20
519.8458025728
 10
141.7956190058
 20
519.8458025728
 10
146.8642883343
 20
520.0936684881
 10
151.8966973168
 20
520.5882082258
 10
156.8688636986
 20
521.3270674024
 10
161.7570927707
 20
522.306729344
 10
166.5380912242
 20
523.5225448881
 10
171.1890751836
 20
524.9686727796
 10
175.6878773091
 20
526.6382584844
 10
180.0130622801
 20
528.5233447824
 10
184.1440180657
 20
530.6149313722
 10
188.0610602317
 20
532.9030642782
 10
191.7455176232
 20
535.3768358503
 10
195.1798366723
 20
538.0244443689
 10
198.3476484534
 20
540.8332834516
 10
201.2338543651
 20
543.790001658
 10
203.8247118113
 20
546.880442885
 10
206.1078602788
 20
550.0899145876
 10
208.0724293706
 20
553.4031281744
 10
209.7090462563
 20
556.8042884145
 10
211.0099250791
 20
560.2771828447
 10
211.9688595054
 20
563.8052711759
 10
212.5812823293
 20
567.3717150961
 10
212.8442654726
 20
570.9595570837
 10
212.756572139
 20
574.5516608034
 10
212.3186046598
 20
578.1309495245
 10
211.5324566481
 20
581.6803465162
 10
210.4018831966
 20
585.1829240595
 10
208.9322561738
 20
588.6219928537
 10
207.1305865762
 20
591.9811616216
 10
205.0054649231
 20
595.2444563184
 10
202.567009103
 20
598.3963201318
 10
199.8268420217
 20
601.4216879879
 10
196.7980282721
 20
604.3061653648
 10
193.4949959037
 20
607.0360282932
 10
189.9334842679
 20
609.5982531582
 10
186.1304695127
 20
611.9806210075
 10
182.10407145
 20
614.1717771564
 10
177.8734827754
 20
616.1613056932
 10
173.4588573096
 20
617.9396996771
 10
168.881235492
 20
619.4984803472
 10
164.1624344853
 20
620.8302567278
 10
159.3249382791
 20
621.9286362205
 10
154.3917999012
 20
622.7884183202
 10
149.3865296585
 20
623.4054903064
 10
144.3329791878
 20
623.7769017492
 10
139.2552310941
 20
623.9009092127
  0
INSERT
  5
B0
330
1F
100
AcDbEntity
  8
FORMAT
100
AcDbBlockReference
  2
SW_CENTERMARKSYMBOL_1
 10
139.2552310941
 20
850.4579255853
 30
0.0
  0
LINE
  5
B1
330
1F
100
AcDbEntity
  8
0
  6
Continuous
 62
     7
370
    25
100
AcDbLine
 10
628.2467011517
 20
210.7101603373
 30
0.0
 11
628.2467011517
 21
387.4309583529
 31
0.0
  0
LINE
  5
B2
330
1F
100
AcDbEntity
  8
0
  6
Continuous
 62
     7
370
    25
100
AcDbLine
 10
628.2467011517
 20
-190.569050707
 30
0.0
 11
628.2467011517
 21
-43.8482687846
 31
0.0
  0
LINE
  5
B3
330
1F
100
AcDbEntity
  8
0
  6
Continuous
 62
     7
370
    25
100
AcDbLine
 10
448.2466939992
 20
387.4309583529
 30
0.0
 11
448.2466939992
 21
-190.569050707
 31
0.0
  0
LINE
  5
B4
330
1F
100
AcDbEntity
  8
0
  6
Continuous
 62
     7
370
    25
100
AcDbLine
 10
753.2071534699
 20
335.6706424579
 30
0.0
 11
628.2467011517
 21
210.7101603373
 31
0.0
  0
LINE
  5
B5
330
1F
100
AcDbEntity
  8
0
  6
Continuous
 62
     7
370
    25
100
AcDbLine
 10
628.2467011517
 20
-43.8482687846
 30
0.0
 11
880.4863754815
 21
208.3914204463
 31
0.0
  0
LINE
  5
B6
330
1F
100
AcDbEntity
  8
0
  6
Continuous
 62
     7
370
    25
100
AcDbLine
 10
538.2466975754
 20
-190.569050707
 30
0.0
 11
628.2467011517
 21
-190.569050707
 31
0.0
  0
LINE
  5
B7
330
1F
100
AcDbEntity
  8
0
  6
Continuous
 62
     7
370
    25
100
AcDbLine
 10
448.2466939992
 20
-190.569050707
 30
0.0
 11
538.2466975754
 21
-190.569050707
 31
0.0
  0
LINE
  5
B8
330
1F
100
AcDbEntity
  8
0
  6
Continuous
 62
     7
370
    25
100
AcDbLine
 10
538.2466975754
 20
387.4309583529
 30
0.0
 11
628.2467011517
 21
387.4309583529
 31
0.0
  0
LINE
  5
B9
330
1F
100
AcDbEntity
  8
0
  6
Continuous
 62
     7
370
    25
100
AcDbLine
 10
448.2466939992
 20
387.4309583529
 30
0.0
 11
538.2466975754
 21
387.4309583529
 31
0.0
  0
LWPOLYLINE
  5
BA
330
1F
100
AcDbEntity
  8
0
  6
Continuous
 62
     7
370
    25
100
AcDbPolyline
 90
       42
 70
   128
 43
0.0
 10
538.2466975754
 20
-6.5690503493
 10
541.7364810748
 20
1.8560363873
 10
545.2210156402
 20
10.2684422358
 10
548.6950602537
 20
18.6555310115
 10
552.1533887988
 20
27.0046665295
 10
555.5908017015
 20
35.3033169135
 10
559.0021263963
 20
43.5389800891
 10
562.3822331583
 20
51.6992880925
 10
565.7260369664
 20
59.7719474658
 10
569.0285105413
 20
67.7448137626
 10
572.2846862084
 20
75.6059213504
 10
575.4896614855
 20
83.3434089049
 10
578.6386232978
 20
90.9456833228
 10
581.7268330759
 20
98.4012707099
 10
584.7496416575
 20
105.6989951953
 10
587.7025041884
 20
112.8278299197
 10
590.580983848
 20
119.7771056517
 10
593.3807481235
 20
126.5363319739
 10
596.0975837117
 20
133.0953462943
 10
598.7274039692
 20
139.4442840442
 10
601.2662563628
 20
145.5736382827
 10
603.7103224701
 20
151.4741404876
 10
606.0559291547
 20
157.1369095668
 10
608.2995373911
 20
162.5534816607
 10
610.4377869671
 20
167.7156611308
 10
612.467444331
 20
172.6156993731
 10
614.3854770964
 20
177.2462352141
 10
616.1889869875
 20
181.600265108
 10
617.8752619928
 20
185.6712921485
 10
619.441768915
 20
189.4531770572
 10
620.8861459201
 20
192.9402275905
 10
622.2062323397
 20
196.1271985396
 10
623.4000314182
 20
199.0092917308
 10
624.4657550162
 20
201.5821560248
 10
625.4017938083
 20
203.8419767245
 10
626.2067470854
 20
205.7852967605
 10
626.8793929523
 20
207.409195505
 10
627.4187330311
 20
208.7112887725
 10
627.8239477581
 20
209.6895798072
 10
628.0944336361
 20
210.342578493
 10
628.2297734326
 20
210.6693013533
 10
628.2467011517
 20
210.7101603373
  0
LWPOLYLINE
  5
BB
330
1F
100
AcDbEntity
  8
0
  6
Continuous
 62
     7
370
    25
100
AcDbPolyline
 90
       27
 70
   128
 43
0.0
 10
628.2467011517
 20
-43.8482687846
 10
628.0824978059
 20
-43.7802598849
 10
627.5904987162
 20
-43.5764567033
 10
626.7724920219
 20
-43.2376341001
 10
625.6314579552
 20
-42.7649990693
 10
624.1715762919
 20
-42.1602950469
 10
622.3981592959
 20
-41.4257274047
 10
620.3176815218
 20
-40.5639634505
 10
617.9377425617
 20
-39.5781622306
 10
615.2670148915
 20
-38.4719149247
 10
612.3152438706
 20
-37.2492448465
 10
609.0932104891
 20
-35.9146372453
 10
605.6126643127
 20
-34.4729498998
 10
601.8863085812
 20
-32.9294429198
 10
597.927736879
 20
-31.2897489444
 10
593.7513958818
 20
-29.5598433391
 10
589.3725257522
 20
-27.7460590974
 10
584.807100535
 20
-25.8549974338
 10
580.0717834538
 20
-23.893572487
 10
575.1838486796
 20
-21.8689219133
 10
570.1611366278
 20
-19.7884515897
 10
565.0219720012
 20
-17.6597313062
 10
559.7851079112
 20
-15.49055437
 10
554.4696513718
 20
-13.2888183967
 10
549.0949990383
 20
-11.0625700132
 10
543.6807622357
 20
-8.8199154512
 10
538.2466975754
 20
-6.5690503493
  0
LWPOLYLINE
  5
BC
330
1F
100
AcDbEntity
  8
0
  6
Continuous
 62
     7
370
    25
100
AcDbPolyline
 90
       51
 70
   128
 43
0.0
 10
753.2071534699
 20
335.6706424579
 10
753.3327404564
 20
335.5450554713
 10
753.7089798754
 20
335.1688309535
 10
754.3343965119
 20
334.5433994159
 10
755.2065167731
 20
333.6712642535
 10
756.3218984908
 20
332.5558825358
 10
757.6761607236
 20
331.2016054019
 10
759.2639241522
 20
329.6138568744
 10
761.0789600915
 20
327.7988358363
 10
763.1140712803
 20
325.7636948451
 10
765.3612408942
 20
323.5165401324
 10
767.8116027421
 20
321.0661931857
 10
770.4554859704
 20
318.4223099574
 10
773.2824597663
 20
315.5953212603
 10
776.2813482588
 20
312.5964327678
 10
779.4403497285
 20
309.4374461993
 10
782.7469621008
 20
306.1308189257
 10
786.18814686
 20
302.6896341666
 10
789.7503439492
 20
299.1274519786
 10
793.4194568699
 20
295.4583390578
 10
797.1810463971
 20
291.6967495307
 10
801.0202411717
 20
287.8575547561
 10
804.9219016141
 20
283.9558943137
 10
808.8706199235
 20
280.0071760043
 10
812.8508094853
 20
276.0269864425
 10
816.8467644757
 20
272.0310314521
 10
820.8427194661
 20
268.0350466594
 10
824.8229388302
 20
264.0548570975
 10
828.7716571396
 20
260.1061387881
 10
832.6732877797
 20
256.2045081481
 10
836.5124825543
 20
252.3653133735
 10
840.2740720814
 20
248.6037238463
 10
843.9431850022
 20
244.9345811232
 10
847.5053969925
 20
241.3723989352
 10
850.9465817517
 20
237.9312141761
 10
854.2531792229
 20
234.6245869025
 10
857.4121955937
 20
231.4656003341
 10
860.4110840863
 20
228.4667118415
 10
863.238042981
 20
225.6397529467
 10
865.8819262093
 20
222.9958697184
 10
868.3323029584
 20
220.5454929694
 10
870.579457671
 20
218.2983084544
 10
872.6145986622
 20
216.2631972655
 10
874.4296197003
 20
214.4481762275
 10
876.0173682278
 20
212.8603978976
 10
877.3716453618
 20
211.506150566
 10
878.4870270794
 20
210.3907688483
 10
879.3591324395
 20
209.518633686
 10
879.9845639771
 20
208.8932319507
 10
880.3607884949
 20
208.5169776305
 10
880.4863754815
 20
208.3914204463
  0
LINE
  5
BD
330
1F
100
AcDbEntity
  8
0
  6
Continuous
 62
     7
370
    25
100
AcDbLine
 10
-280.1311004709
 20
-190.569050707
 30
0.0
 11
-280.1311004709
 21
387.4309583529
 31
0.0
  0
LINE
  5
BE
330
1F
100
AcDbEntity
  8
0
  6
Continuous
 62
     7
370
    25
100
AcDbLine
 10
-460.1311076235
 20
-43.8482687846
 30
0.0
 11
-460.1311076235
 21
-190.569050707
 31
0.0
  0
LINE
  5
BF
330
1F
100
AcDbEntity
  8
0
  6
Continuous
 62
     7
370
    25
100
AcDbLine
 10
-460.1311076235
 20
387.4309583529
 30
0.0
 11
-460.1311076235
 21
210.7101603373
 31
0.0
  0
LINE
  5
C0
330
1F
100
AcDbEntity
  8
0
  6
Continuous
 62
     7
370
    25
100
AcDbLine
 10
-712.3707819532
 20
208.3914204463
 30
0.0
 11
-460.1311076235
 21
-43.8482687846
 31
0.0
  0
LINE
  5
C1
330
1F
100
AcDbEntity
  8
0
  6
Continuous
 62
     7
370
    25
100
AcDbLine
 10
-460.1311076235
 20
210.7101603373
 30
0.0
 11
-585.0915599417
 21
335.6706424579
 31
0.0
  0
LINE
  5
C2
330
1F
100
AcDbEntity
  8
0
  6
Continuous
 62
     7
370
    25
100
AcDbLine
 10
-460.1311076235
 20
-190.569050707
 30
0.0
 11
-280.1311004709
 21
-190.569050707
 31
0.0
  0
LINE
  5
C3
330
1F
100
AcDbEntity
  8
0
  6
Continuous
 62
     7
370
    25
100
AcDbLine
 10
-460.1311076235
 20
387.4309583529
 30
0.0
 11
-280.1311004709
 21
387.4309583529
 31
0.0
  0
LWPOLYLINE
  5
C4
330
1F
100
AcDbEntity
  8
0
  6
Continuous
 62
     7
370
    25
100
AcDbPolyline
 90
       42
 70
   128
 43
0.0
 10
-460.1311076235
 20
210.7101603373
 10
-460.1141799044
 20
210.6693013533
 10
-459.9788401078
 20
210.342578493
 10
-459.7083542298
 20
209.6895798072
 10
-459.3031395029
 20
208.7112887725
 10
-458.7637994241
 20
207.409195505
 10
-458.0911535572
 20
205.7852967605
 10
-457.2862002801
 20
203.8419767245
 10
-456.350161488
 20
201.5821560248
 10
-455.28443789
 20
199.0092917308
 10
-454.0906388115
 20
196.1271985396
 10
-452.7705523919
 20
192.9402275905
 10
-451.3261753868
 20
189.4531770572
 10
-449.7596684646
 20
185.6712921485
 10
-448.0733934592
 20
181.600265108
 10
-446.2698835682
 20
177.2462352141
 10
-444.3518508028
 20
172.6156993731
 10
-442.3221934389
 20
167.7156611308
 10
-440.1839438628
 20
162.5534816607
 10
-437.9403356265
 20
157.1369095668
 10
-435.5947289418
 20
151.4741404876
 10
-433.1506628346
 20
145.5736382827
 10
-430.6118104409
 20
139.4442840442
 10
-427.9819901835
 20
133.0953462943
 10
-425.2651545953
 20
126.5363319739
 10
-422.4653903197
 20
119.7771056517
 10
-419.5869106602
 20
112.8278299197
 10
-416.6340481292
 20
105.6989951953
 10
-413.6112395476
 20
98.4012707099
 10
-410.5230297696
 20
90.9456833228
 10
-407.3740679573
 20
83.3434089049
 10
-404.1690926801
 20
75.6059213504
 10
-400.9129170131
 20
67.7448137626
 10
-397.6104434382
 20
59.7719474658
 10
-394.2666396301
 20
51.6992880925
 10
-390.8865328681
 20
43.5389800891
 10
-387.4752081733
 20
35.3033169135
 10
-384.0377952706
 20
27.0046665295
 10
-380.5794667255
 20
18.6555310115
 10
-377.105422112
 20
10.2684422358
 10
-373.6208875466
 20
1.8560363873
 10
-370.1311040472
 20
-6.5690503493
  0
LWPOLYLINE
  5
C5
330
1F
100
AcDbEntity
  8
0
  6
Continuous
 62
     7
370
    25
100
AcDbPolyline
 90
       27
 70
   128
 43
0.0
 10
-370.1311040472
 20
-6.5690503493
 10
-375.5651687074
 20
-8.8199154512
 10
-380.97940551
 20
-11.0625700132
 10
-386.3540578436
 20
-13.2888183967
 10
-391.669514383
 20
-15.49055437
 10
-396.906378473
 20
-17.6597313062
 10
-402.0455430996
 20
-19.7884515897
 10
-407.0682551514
 20
-21.8689219133
 10
-411.9561899256
 20
-23.893572487
 10
-416.6915070068
 20
-25.8549974338
 10
-421.2569322239
 20
-27.7460590974
 10
-425.6358023535
 20
-29.5598433391
 10
-429.8121433507
 20
-31.2897489444
 10
-433.770715053
 20
-32.9294429198
 10
-437.4970707845
 20
-34.4729498998
 10
-440.9776169609
 20
-35.9146372453
 10
-444.1996503424
 20
-37.2492448465
 10
-447.1514213633
 20
-38.4719149247
 10
-449.8221490335
 20
-39.5781622306
 10
-452.2020879935
 20
-40.5639634505
 10
-454.2825657677
 20
-41.4257274047
 10
-456.0559827637
 20
-42.1602950469
 10
-457.515864427
 20
-42.7649990693
 10
-458.6568984937
 20
-43.2376341001
 10
-459.474905188
 20
-43.5764567033
 10
-459.9669042777
 20
-43.7802598849
 10
-460.1311076235
 20
-43.8482687846
  0
LWPOLYLINE
  5
C6
330
1F
100
AcDbEntity
  8
0
  6
Continuous
 62
     7
370
    25
100
AcDbPolyline
 90
       51
 70
   128
 43
0.0
 10
-712.3707819532
 20
208.3914204463
 10
-712.2451949667
 20
208.5169776305
 10
-711.8689704489
 20
208.8932319507
 10
-711.2435389113
 20
209.518633686
 10
-710.3714335512
 20
210.3907688483
 10
-709.2560518335
 20
211.506150566
 10
-707.9017746996
 20
212.8603978976
 10
-706.3140261721
 20
214.4481762275
 10
-704.499005134
 20
216.2631972655
 10
-702.4638641428
 20
218.2983084544
 10
-700.2167094301
 20
220.5454929694
 10
-697.7663326811
 20
222.9958697184
 10
-695.1224494528
 20
225.6397529467
 10
-692.2954905581
 20
228.4667118415
 10
-689.2966020655
 20
231.4656003341
 10
-686.1375856947
 20
234.6245869025
 10
-682.8309882235
 20
237.9312141761
 10
-679.3898034643
 20
241.3723989352
 10
-675.827591474
 20
244.9345811232
 10
-672.1584785532
 20
248.6037238463
 10
-668.3968890261
 20
252.3653133735
 10
-664.5576942514
 20
256.2045081481
 10
-660.6560636114
 20
260.1061387881
 10
-656.707345302
 20
264.0548570975
 10
-652.7271259378
 20
268.0350466594
 10
-648.7311709475
 20
272.0310314521
 10
-644.7352159571
 20
276.0269864425
 10
-640.7550263952
 20
280.0071760043
 10
-636.8063080858
 20
283.9558943137
 10
-632.9046476435
 20
287.8575547561
 10
-629.0654528688
 20
291.6967495307
 10
-625.3038633417
 20
295.4583390578
 10
-621.634750421
 20
299.1274519786
 10
-618.0725533318
 20
302.6896341666
 10
-614.6313685726
 20
306.1308189257
 10
-611.3247562002
 20
309.4374461993
 10
-608.1657547306
 20
312.5964327678
 10
-605.166866238
 20
315.5953212603
 10
-602.3398924421
 20
318.4223099574
 10
-599.6960092138
 20
321.0661931857
 10
-597.245647366
 20
323.5165401324
 10
-594.9984777521
 20
325.7636948451
 10
-592.9633665632
 20
327.7988358363
 10
-591.148330624
 20
329.6138568744
 10
-589.5605671953
 20
331.2016054019
 10
-588.2063049625
 20
332.5558825358
 10
-587.0909232449
 20
333.6712642535
 10
-586.2188029837
 20
334.5433994159
 10
-585.5933863472
 20
335.1688309535
 10
-585.2171469282
 20
335.5450554713
 10
-585.0915599417
 20
335.6706424579
  0
LINE
  5
C7
330
1F
100
AcDbEntity
  8
0
  6
Continuous
 62
     7
370
    25
100
AcDbLine
 10
363.5295333644
 20
-422.8108353173
 30
0.0
 11
548.4718302143
 21
-743.1402676968
 31
0.0
  0
LINE
  5
C8
330
1F
100
AcDbEntity
  8
0
  6
Continuous
 62
     7
370
    25
100
AcDbLine
 10
653.6876074269
 20
-565.379349596
 30
0.0
 11
519.4141096112
 21
-332.8108329936
 31
0.0
  0
LINE
  5
C9
330
1F
100
AcDbEntity
  8
0
  6
Continuous
 62
     7
370
    25
100
AcDbLine
 10
728.4718295572
 20
-869.2683520212
 30
0.0
 11
728.4718295572
 21
-397.3077553534
 31
0.0
  0
LINE
  5
CA
330
1F
100
AcDbEntity
  8
0
  6
Continuous
 62
     7
370
    25
100
AcDbLine
 10
548.4718275802
 20
-740.5491786933
 30
0.0
 11
548.4718275802
 21
-869.2683520212
 31
0.0
  0
ELLIPSE
  5
CB
330
1F
100
AcDbEntity
  8
0
  6
Continuous
 62
     7
370
    25
100
AcDbEllipse
 10
638.4718285687
 20
-719.0248426342
 30
0.0
 11
89.67552842809562
 21
24.02848548421536
 31
0.0
210
0.0
220
0.0
230
1.0
 40
0.3177652438
 41
0.7004580896382443
 42
3.056652579830591
  0
ELLIPSE
  5
CC
330
1F
100
AcDbEntity
  8
0
  6
Continuous
 62
     7
370
    25
100
AcDbEllipse
 10
638.4718285687
 20
-719.0248426342
 30
0.0
 11
-58.01111873217337
 21
216.5004419621047
 31
0.0
210
0.0
220
0.0
230
1.0
 40
0.3178248929
 41
4.797329054143887
 42
5.412847070022956
  0
LWPOLYLINE
  5
CD
330
1F
100
AcDbEntity
  8
0
  6
Continuous
 62
     7
370
    25
100
AcDbPolyline
 90
      101
 70
   128
 43
0.0
 10
486.4718325188
 20
-351.8244357612
 10
482.3870649989
 20
-354.1825385225
 10
478.1408296097
 20
-356.6338757949
 10
473.7498774186
 20
-359.1688136994
 10
469.2315416461
 20
-361.7773213178
 10
464.6036543606
 20
-364.4490917919
 10
459.8844651474
 20
-367.1736136137
 10
455.0926213528
 20
-369.9400846835
 10
450.2470087162
 20
-372.7376260041
 10
445.3667750777
 20
-375.5552193099
 10
440.4711710104
 20
-378.3816774133
 10
435.5795129419
 20
-381.2058845038
 10
430.7111093969
 20
-384.0167048912
 10
425.8851688019
 20
-386.803048403
 10
421.120752069
 20
-389.5538855909
 10
416.4366356192
 20
-392.2583754916
 10
411.8513324557
 20
-394.9058656191
 10
407.3829341133
 20
-397.4858737203
 10
403.0490527062
 20
-399.9882307386
 10
398.8668261969
 20
-402.4030656032
 10
394.8527287346
 20
-404.7208539064
 10
391.0226180711
 20
-406.9324391898
 10
387.3916038516
 20
-409.0290968317
 10
383.9740265413
 20
-411.0025462132
 10
380.7833678634
 20
-412.8450024328
 10
377.8322191889
 20
-414.5491945626
 10
375.1322341214
 20
-416.1084173632
 10
372.6940336667
 20
-417.5164643659
 10
370.5272799898
 20
-418.7678286338
 10
368.6405341693
 20
-419.8575415584
 10
367.041203514
 20
-420.7813249547
 10
365.7356100509
 20
-421.5355271811
 10
364.7289273059
 20
-422.1171839861
 10
364.0250907408
 20
-422.5239485573
 10
363.6269189262
 20
-422.7542648986
 10
363.5359765639
 20
-422.8072279274
 10
363.7525797551
 20
-422.6825804336
 10
364.2759277097
 20
-422.3808560429
 10
365.1039341589
 20
-421.903233232
 10
366.233322185
 20
-421.2516022458
 10
367.6596347589
 20
-420.4285346884
 10
369.377271618
 20
-419.4372865682
 10
371.3794023388
 20
-418.2817268336
 10
373.6581770707
 20
-416.9664590357
 10
376.2045948273
 20
-415.4966783841
 10
379.0085574872
 20
-413.8781405733
 10
382.0590568203
 20
-412.1172728037
 10
385.3440388281
 20
-410.2210331195
 10
388.8505077932
 20
-408.1968503331
 10
392.56467083
 20
-406.0527839111
 10
396.4718315302
 20
-403.7972203803
 10
400.5565990501
 20
-401.4391419538
 10
404.8028239025
 20
-398.9877742639
 10
409.1937866304
 20
-396.4528667769
 10
413.7121118662
 20
-393.8443530758
 10
418.3399991517
 20
-391.1725826017
 10
423.0591989016
 20
-388.4480911974
 10
427.8510321595
 20
-385.6815897101
 10
432.6966342594
 20
-382.8840423068
 10
437.5768889713
 20
-380.0664855012
 10
442.4724825018
 20
-377.2399969803
 10
447.3641511071
 20
-374.4157716377
 10
452.2325546521
 20
-371.6049512503
 10
457.0584847104
 20
-368.8186259906
 10
461.8229014433
 20
-366.0677888027
 10
466.5070284298
 20
-363.3633049847
 10
471.0923210566
 20
-360.7158087745
 10
475.560719399
 20
-358.1358006732
 10
479.8946113428
 20
-355.6334497377
 10
484.0768378521
 20
-353.2185905383
 10
488.0909353144
 20
-350.900802235
 10
491.9210459779
 20
-348.6892169517
 10
495.552039124
 20
-346.5925714792
 10
498.9696164343
 20
-344.6191220977
 10
502.1602961856
 20
-342.7766780435
 10
505.1114448601
 20
-341.0724615789
 10
507.8114299276
 20
-339.5132631131
 10
510.2496093089
 20
-338.105203945
 10
512.4163629858
 20
-336.8538396771
 10
514.3031298797
 20
-335.7641145831
 10
515.902460535
 20
-334.8403311868
 10
517.2080539981
 20
-334.0861289604
 10
518.2147367431
 20
-333.5044964902
 10
518.9185627714
 20
-333.0977258362
 10
519.316734586
 20
-332.8674094949
 10
519.4076874851
 20
-332.8144525489
 10
519.1910737572
 20
-332.93909396
 10
518.6677258025
 20
-333.2408183506
 10
517.8397298901
 20
-333.7184229095
 10
516.710341864
 20
-334.3700538957
 10
515.2840187534
 20
-335.1931397052
 10
513.566392431
 20
-336.1844182429
 10
511.5642406368
 20
-337.3399414772
 10
509.2854764416
 20
-338.6552153579
 10
506.7390692217
 20
-340.125026427
 10
503.9350960251
 20
-341.7435338203
 10
500.8845966919
 20
-343.5044015898
 10
497.5996252209
 20
-345.4006473568
 10
494.0931457191
 20
-347.4247997256
 10
490.378993219
 20
-349.5688965652
 10
486.4718325188
 20
-351.8244357612
  0
LWPOLYLINE
  5
CE
330
1F
100
AcDbEntity
  8
0
  6
Continuous
 62
     7
370
    25
100
AcDbPolyline
 90
       92
 70
   128
 43
0.0
 10
478.2718259662
 20
-356.5597376473
 10
474.5936293376
 20
-358.6831074846
 10
470.757601981
 20
-360.8976847293
 10
466.7820056648
 20
-363.1928416838
 10
462.6857923121
 20
-365.5576129093
 10
458.4884943531
 20
-367.9808193674
 10
454.2100900525
 20
-370.4508419895
 10
449.8709982414
 20
-372.9560018936
 10
445.4918721925
 20
-375.4842292095
 10
441.0935851325
 20
-378.0235824614
 10
436.6971103871
 20
-380.5618797401
 10
432.3233844032
 20
-383.0871184819
 10
427.9932487973
 20
-385.5871925662
 10
423.7273476227
 20
-388.0502071482
 10
419.5460193681
 20
-390.4644193402
 10
415.4691705167
 20
-392.81834772
 10
411.5162175948
 20
-395.100732786
 10
407.706031854
 20
-397.3007392344
 10
404.0567680491
 20
-399.407860149
 10
400.5857959501
 20
-401.4120903902
 10
397.3096634634
 20
-403.3038262102
 10
394.2439701914
 20
-405.0740599355
 10
391.4033410904
 20
-406.714395182
 10
388.8013316406
 20
-408.2169799365
 10
386.4503014053
 20
-409.5746769089
 10
384.3614930564
 20
-410.780993569
 10
382.5448269083
 20
-411.8302007907
 10
381.0089799435
 20
-412.7172872245
 10
379.7612593718
 20
-413.4380323128
 10
378.807623704
 20
-413.9889941293
 10
378.1526142629
 20
-414.367548928
 10
377.7993551838
 20
-414.5719154902
 10
377.749495462
 20
-414.6010669168
 10
378.0033274913
 20
-414.4549055384
 10
378.5596158423
 20
-414.1341184468
 10
379.4156999951
 20
-413.6402398546
 10
380.5675127788
 20
-412.9756161233
 10
382.0095645664
 20
-412.1434148998
 10
383.7349748849
 20
-411.1476068757
 10
385.7355330014
 20
-409.9929308118
 10
388.0017084597
 20
-408.6848874676
 10
390.5226734711
 20
-407.2297266827
 10
393.2864477939
 20
-405.6343637284
 10
396.2798480255
 20
-403.906408604
 10
399.4886061406
 20
-402.0540975985
 10
402.8974289248
 20
-400.0862589843
 10
406.4900799633
 20
-398.012265686
 10
410.2494380866
 20
-395.8420015443
 10
414.1575810059
 20
-393.5858130345
 10
418.1958859058
 20
-391.2544511914
 10
422.3451114328
 20
-388.8590242788
 10
426.585499276
 20
-386.4109391437
 10
430.8968084115
 20
-383.9218814555
 10
435.2585172752
 20
-381.4036989706
 10
439.6498422026
 20
-378.8683908992
 10
444.0498441124
 20
-376.3280463098
 10
448.4375654843
 20
-373.7947650424
 10
452.7920909445
 20
-371.2806227326
 10
457.0926631704
 20
-368.7976038939
 10
461.318793525
 20
-366.3575380374
 10
465.4503647908
 20
-363.9720646921
 10
469.4676496085
 20
-361.6525010943
 10
473.3515185773
 20
-359.4099653662
 10
477.083474499
 20
-357.2551134069
 10
480.6457208668
 20
-355.1982210172
 10
484.0212883058
 20
-353.24908656
 10
487.194092525
 20
-351.4169974939
 10
490.1489975374
 20
-349.7106938725
 10
492.8719421006
 20
-348.1382953286
 10
495.3499344487
 20
-346.7073041231
 10
497.5711840007
 20
-345.4245290794
 10
499.5250960926
 20
-344.2961129678
 10
501.2023562709
 20
-343.3273864847
 10
502.5949619026
 20
-342.5229716662
 10
503.6962801276
 20
-341.8867484259
 10
504.501090005
 20
-341.4217085337
 10
505.0055456349
 20
-341.1300985796
 10
505.2072130366
 20
-341.0132648327
 10
505.1051518088
 20
-341.0718007551
 10
504.699859811
 20
-341.3054085923
 10
503.993257359
 20
-341.7129814978
 10
502.9887082981
 20
-342.2925548516
 10
501.6909962958
 20
-343.0414416126
 10
500.1063274753
 20
-343.9559752724
 10
498.2422303176
 20
-345.0318839975
 10
496.1075872709
 20
-346.2639316782
 10
493.7125991898
 20
-347.646376476
 10
491.0686444061
 20
-349.1725411615
 10
488.1883465595
 20
-350.8352241245
 10
485.0854218152
 20
-352.6264103981
 10
481.7746495581
 20
-354.5375927511
 10
478.2718259662
 20
-356.5597376473
  0
LWPOLYLINE
  5
CF
330
1F
100
AcDbEntity
  8
0
  6
Continuous
 62
     7
370
    25
100
AcDbPolyline
 90
      101
 70
   128
 43
0.0
 10
574.8322157331
 20
-906.006718513
 10
570.9618334266
 20
-903.6274007024
 10
567.3578791302
 20
-901.1124851206
 10
564.0345751004
 20
-898.4718974272
 10
561.0050451415
 20
-895.7160544606
 10
558.2812418362
 20
-892.8558343952
 10
555.8739126309
 20
-889.9025267492
 10
553.7925590058
 20
-886.8677844825
 10
552.0453982793
 20
-883.7635836998
 10
550.6393188269
 20
-880.6021795498
 10
549.5798787642
 20
-877.3960446385
 10
548.8712532635
 20
-874.1578325326
 10
548.5162398218
 20
-870.9003260565
 10
548.5162398218
 20
-867.6363779858
 10
548.8712532635
 20
-864.3788715097
 10
549.5798787642
 20
-861.1406594039
 10
550.6393188269
 20
-857.9345244926
 10
552.0453982793
 20
-854.7731203425
 10
553.7925590058
 20
-851.6689195598
 10
555.8739126309
 20
-848.6341772932
 10
558.2812418362
 20
-845.6808696471
 10
561.0050451415
 20
-842.8206495818
 10
564.0345751004
 20
-840.0648066152
 10
567.3578791302
 20
-837.4242189217
 10
570.9618334266
 20
-834.90930334
 10
574.8322157331
 20
-832.5299855293
 10
578.9537616466
 20
-830.2956613827
 10
583.3101952396
 20
-828.2151428524
 10
587.8843229028
 20
-826.2966402725
 10
592.6581001873
 20
-824.5477298538
 10
597.6126835007
 20
-822.9753116756
 10
602.7285167053
 20
-821.5855901064
 10
607.9854140947
 20
-820.3840502341
 10
613.3626301999
 20
-819.3754358157
 10
618.8389361801
 20
-818.5637234256
 10
624.3927265072
 20
-817.9521216957
 10
630.0020821856
 20
-817.5430409017
 10
635.644860315
 20
-817.3380960041
 10
641.2987968224
 20
-817.3380960041
 10
646.9415749517
 20
-817.5430409017
 10
652.5509306302
 20
-817.9521216957
 10
658.1047209572
 20
-818.5637234256
 10
663.5810269375
 20
-819.3754358157
 10
668.9582430427
 20
-820.3840502341
 10
674.2151404321
 20
-821.5855901064
 10
679.3309736367
 20
-822.9753116756
 10
684.2855569501
 20
-824.5477298538
 10
689.0593342346
 20
-826.2966402725
 10
693.6334618978
 20
-828.2151428524
 10
697.9898954908
 20
-830.2956613827
 10
702.1114414043
 20
-832.5299855293
 10
705.9818237108
 20
-834.90930334
 10
709.5857780072
 20
-837.4242189217
 10
712.909082037
 20
-840.0648066152
 10
715.9386119959
 20
-842.8206495818
 10
718.6624153012
 20
-845.6808696471
 10
721.0697445065
 20
-848.6341772932
 10
723.1510981316
 20
-851.6689195598
 10
724.8982588581
 20
-854.7731203425
 10
726.3043383105
 20
-857.9345244926
 10
727.3637783732
 20
-861.1406594039
 10
728.0724038739
 20
-864.3788715097
 10
728.4274173156
 20
-867.6363779858
 10
728.4274173156
 20
-870.9003260565
 10
728.0724038739
 20
-874.1578325326
 10
727.3637783732
 20
-877.3960446385
 10
726.3043383105
 20
-880.6021795498
 10
724.8982588581
 20
-883.7635836998
 10
723.1510981316
 20
-886.8677844825
 10
721.0697445065
 20
-889.9025267492
 10
718.6624153012
 20
-892.8558343952
 10
715.9386119959
 20
-895.7160544606
 10
712.909082037
 20
-898.4718974272
 10
709.5857780072
 20
-901.1124851206
 10
705.9818237108
 20
-903.6274007024
 10
702.1114414043
 20
-906.006718513
 10
697.9898954908
 20
-908.2410426597
 10
693.6334618978
 20
-910.3215611899
 10
689.0593342346
 20
-912.2400637698
 10
684.2855569501
 20
-913.9889741885
 10
679.3309736367
 20
-915.5613923668
 10
674.2151404321
 20
-916.9511139359
 10
668.9582430427
 20
-918.1526538082
 10
663.5810269375
 20
-919.1612682266
 10
658.1047209572
 20
-919.9729806167
 10
652.5509306302
 20
-920.5845823466
 10
646.9415749517
 20
-920.9936631406
 10
641.2987968224
 20
-921.1986080382
 10
635.644860315
 20
-921.1986080382
 10
630.0020821856
 20
-920.9936631406
 10
624.3927265072
 20
-920.5845823466
 10
618.8389361801
 20
-919.9729806167
 10
613.3626301999
 20
-919.1612682266
 10
607.9854140947
 20
-918.1526538082
 10
602.7285167053
 20
-916.9511139359
 10
597.6126835007
 20
-915.5613923668
 10
592.6581001873
 20
-913.9889741885
 10
587.8843229028
 20
-912.2400637698
 10
583.3101952396
 20
-910.3215611899
 10
578.9537616466
 20
-908.2410426597
 10
574.8322157331
 20
-906.006718513
  0
LWPOLYLINE
  5
D0
330
1F
100
AcDbEntity
  8
0
  6
Continuous
 62
     7
370
    25
100
AcDbPolyline
 90
       49
 70
   128
 43
0.0
 10
550.4292905441
 20
-386.53068476
 10
550.6393188269
 20
-385.9739278248
 10
552.0453982793
 20
-382.8125236748
 10
553.7925590058
 20
-379.708322892
 10
555.8739126309
 20
-376.6735806254
 10
558.2812418362
 20
-373.7202729794
 10
561.0050451415
 20
-370.860052914
 10
564.0345751004
 20
-368.1042099474
 10
567.3578791302
 20
-365.463622254
 10
570.9618334266
 20
-362.9487066722
 10
574.8322157331
 20
-360.5693888615
 10
578.9537616466
 20
-358.3350647149
 10
583.3101952396
 20
-356.2545461847
 10
587.8843229028
 20
-354.3360436048
 10
592.6581001873
 20
-352.5871331861
 10
597.6126835007
 20
-351.0147150078
 10
602.7285167053
 20
-349.6249934387
 10
607.9854140947
 20
-348.4234535664
 10
613.3626301999
 20
-347.4148391479
 10
618.8389361801
 20
-346.6031267578
 10
624.3927265072
 20
-345.991525028
 10
630.0020821856
 20
-345.5824442339
 10
635.644860315
 20
-345.3774993364
 10
641.2987968224
 20
-345.3774993364
 10
646.9415749517
 20
-345.5824442339
 10
652.5509306302
 20
-345.991525028
 10
658.1047209572
 20
-346.6031267578
 10
663.5810269375
 20
-347.4148391479
 10
668.9582430427
 20
-348.4234535664
 10
674.2151404321
 20
-349.6249934387
 10
679.3309736367
 20
-351.0147150078
 10
684.2855569501
 20
-352.5871331861
 10
689.0593342346
 20
-354.3360436048
 10
693.6334618978
 20
-356.2545461847
 10
697.9898954908
 20
-358.3350647149
 10
702.1114414043
 20
-360.5693888615
 10
705.9818237108
 20
-362.9487066722
 10
709.5857780072
 20
-365.463622254
 10
712.909082037
 20
-368.1042099474
 10
715.9386119959
 20
-370.860052914
 10
718.6624153012
 20
-373.7202729794
 10
721.0697445065
 20
-376.6735806254
 10
723.1510981316
 20
-379.708322892
 10
724.8982588581
 20
-382.8125236748
 10
726.3043383105
 20
-385.9739278248
 10
727.3637783732
 20
-389.1800627361
 10
728.0724038739
 20
-392.418274842
 10
728.4274173156
 20
-395.6757813181
 10
728.4718295572
 20
-397.3077553534
  0
LWPOLYLINE
  5
D1
330
1F
100
AcDbEntity
  8
0
  6
Continuous
 62
     7
370
    25
100
AcDbPolyline
 90
       92
 70
   128
 43
0.0
 10
586.4287683185
 20
-899.3121712029
 10
582.9622647733
 20
-897.1678263699
 10
579.760284069
 20
-894.8905308872
 10
576.8380955477
 20
-892.4911311849
 10
574.2096198527
 20
-889.9810637166
 10
571.8873772321
 20
-887.3722947024
 10
569.8824476971
 20
-884.6772484666
 10
568.2043709237
 20
-881.9087739831
 10
566.86115613
 20
-879.0800593372
 10
565.8591964662
 20
-876.2045914274
 10
565.203267697
 20
-873.2960670061
 10
564.8964992259
 20
-870.3683485793
 10
564.9403477534
 20
-867.4353883734
 10
565.3346104478
 20
-864.5111629454
 10
566.0774038718
 20
-861.6096093147
 10
567.1651876901
 20
-858.7445504501
 10
568.5927831087
 20
-855.9296420453
 10
570.3533847286
 20
-853.178301808
 10
572.4385987416
 20
-850.5036357069
 10
574.8384903452
 20
-847.9183923511
 10
577.5416304994
 20
-845.4348934192
 10
580.5351242443
 20
-843.0649686502
 10
583.8047127742
 20
-840.8199151655
 10
587.3348198651
 20
-838.7104341707
 10
591.1086118023
 20
-836.7465720289
 10
595.1081169061
 20
-834.9376938393
 10
599.3142676789
 20
-833.2924165274
 10
603.707022965
 20
-831.818580902
 10
608.2654443417
 20
-830.5232075561
 10
612.9678169623
 20
-829.4124757673
 10
617.7917266061
 20
-828.4916729352
 10
622.7141887526
 20
-827.7651930604
 10
627.7117381439
 20
-827.236491125
 10
632.7605670789
 20
-826.9080914552
 10
637.8366123414
 20
-826.7815588295
 10
642.9156842744
 20
-826.8574939158
 10
647.9735826844
 20
-827.1355363134
 10
652.9861969398
 20
-827.6143615112
 10
657.9296429485
 20
-828.2916869706
 10
662.7803658905
 20
-829.1642827702
 10
667.5152508535
 20
-830.2279928953
 10
672.1117268831
 20
-831.4777496846
 10
676.5478934231
 20
-832.9075951192
 10
680.802606585
 20
-834.5107184598
 10
684.855597686
 20
-836.2794760153
 10
688.6875537558
 20
-838.2054376189
 10
692.2802047943
 20
-840.2794309172
 10
695.6164296319
 20
-842.4915720695
 10
698.6803395655
 20
-844.8313140293
 10
701.457331535
 20
-847.2875076561
 10
703.9341648448
 20
-849.8484520884
 10
706.0990416698
 20
-852.5019412192
 10
707.9416413006
 20
-855.2353321265
 10
709.4531853389
 20
-858.0355948756
 10
710.6264745761
 20
-860.8893855118
 10
711.4559140181
 20
-863.7831061269
 10
711.9375497636
 20
-866.702968728
 10
712.0690874436
 20
-869.6350545437
 10
711.8499027579
 20
-872.5653930997
 10
711.2810362069
 20
-875.4800200043
 10
710.3651983596
 20
-878.3650438585
 10
709.1067619517
 20
-881.2067207689
 10
707.5117118356
 20
-883.9915045304
 10
705.5876594688
 20
-886.706126462
 10
703.3437638883
 20
-889.3376471092
 10
700.7907290764
 20
-891.8735307581
 10
697.9407163747
 20
-894.3016899144
 10
694.8073079344
 20
-896.6105550652
 10
691.4054303252
 20
-898.7891187785
 10
687.7513061326
 20
-900.8270062245
 10
683.8623380537
 20
-902.7144995063
 10
679.7570631286
 20
-904.4426066615
 10
675.4550506659
 20
-906.0030962566
 10
670.9767925951
 20
-907.3885241897
 10
666.3436330023
 20
-908.5922926164
 10
661.5776555189
 20
-909.6086662975
 10
656.7015628083
 20
-910.4327995905
 10
651.7385975404
 20
-911.0607638222
 10
646.7124146339
 20
-911.4895693385
 10
641.6469587671
 20
-911.7171723473
 10
636.5663721817
 20
-911.7424855634
 10
631.494865608
 20
-911.5653918946
 10
626.4566076294
 20
-911.1867322761
 10
621.4756114129
 20
-910.6083132742
 10
616.5756029999
 20
-909.8328918791
 10
611.7799449155
 20
-908.8641587779
 10
607.1114820687
 20
-907.7067375938
 10
602.5924719466
 20
-906.3661354644
 10
598.2444364425
 20
-904.8487487441
 10
594.0881039032
 20
-903.1618052184
 10
590.1432849938
 20
-901.3133411035
 10
586.4287683185
 20
-899.3121712029
  0
ENDSEC
  0
SECTION
  2
OBJECTS
  0
DICTIONARY
  5
C
330
0
100
AcDbDictionary
281
     1
  3
ACAD_GROUP
350
D
  3
ACAD_LAYOUT
350
1A
  3
ACAD_MLINESTYLE
350
17
  3
ACAD_PLOTSETTINGS
350
19
  3
ACAD_PLOTSTYLENAME
350
E
  3
ACAD_SCALELIST
350
47
  0
DICTIONARY
  5
D
102
{ACAD_REACTORS
330
C
102
}
330
C
100
AcDbDictionary
281
     1
  0
DICTIONARY
  5
1A
102
{ACAD_REACTORS
330
C
102
}
330
C
100
AcDbDictionary
281
     1
  3
Layout1
350
1E
  3
Layout2
350
26
  3
Model
350
22
  0
DICTIONARY
  5
17
102
{ACAD_REACTORS
330
C
102
}
330
C
100
AcDbDictionary
281
     1
  3
Standard
350
18
  0
DICTIONARY
  5
19
102
{ACAD_REACTORS
330
C
102
}
330
C
100
AcDbDictionary
281
     1
  0
ACDBDICTIONARYWDFLT
  5
E
102
{ACAD_REACTORS
330
C
102
}
330
C
100
AcDbDictionary
281
     1
  3
Normal
350
F
100
AcDbDictionaryWithDefault
340
F
  0
DICTIONARY
  5
47
102
{ACAD_REACTORS
330
C
102
}
330
C
100
AcDbDictionary
281
     1
  3
A0
350
48
  3
A1
350
49
  3
A2
350
4A
  3
A3
350
4B
  3
A4
350
4C
  3
A5
350
4D
  3
A6
350
4E
  3
A7
350
4F
  3
A8
350
50
  3
A9
350
51
  3
B0
350
52
  3
B1
350
53
  3
B2
350
54
  3
B3
350
55
  3
B4
350
56
  3
B5
350
57
  3
B6
350
58
  3
B7
350
59
  3
B8
350
5A
  3
B9
350
5B
  3
C0
350
5C
  3
C1
350
5D
  3
C2
350
5E
  3
C3
350
5F
  3
C4
350
60
  3
C5
350
61
  3
C6
350
62
  3
C7
350
63
  3
C8
350
64
  3
C9
350
65
  3
D0
350
66
  3
D1
350
67
  3
D2
350
68
  0
LAYOUT
  5
1E
102
{ACAD_REACTORS
330
1A
102
}
330
1A
100
AcDbPlotSettings
  1

  2
none_device
  4

  6

 40
0.0
 41
0.0
 42
0.0
 43
0.0
 44
0.0
 45
0.0
 46
0.0
 47
0.0
 48
0.0
 49
0.0
140
0.0
141
0.0
142
1.0
143
1.0
 70
   688
 72
     1
 73
     0
 74
     5
  7

 75
    16
147
1.0
148
0.0
149
0.0
100
AcDbLayout
  1
Layout1
 70
     1
 71
     1
 10
0.0
 20
0.0
 11
420.0
 21
297.0
 12
0.0
 22
0.0
 32
0.0
 14
1.0000000000E+20
 24
1.0000000000E+20
 34
1.0000000000E+20
 15
-1.0000000000E+20
 25
-1.0000000000E+20
 35
-1.0000000000E+20
146
0.0
 13
0.0
 23
0.0
 33
0.0
 16
1.0
 26
0.0
 36
0.0
 17
0.0
 27
1.0
 37
0.0
 76
     0
330
1B
  0
LAYOUT
  5
26
102
{ACAD_REACTORS
330
1A
102
}
330
1A
100
AcDbPlotSettings
  1

  2
none_device
  4

  6

 40
0.0
 41
0.0
 42
0.0
 43
0.0
 44
0.0
 45
0.0
 46
0.0
 47
0.0
 48
0.0
 49
0.0
140
0.0
141
0.0
142
1.0
143
1.0
 70
   688
 72
     1
 73
     0
 74
     5
  7

 75
    16
147
1.0
148
0.0
149
0.0
100
AcDbLayout
  1
Layout2
 70
     1
 71
     2
 10
0.0
 20
0.0
 11
0.0
 21
0.0
 12
0.0
 22
0.0
 32
0.0
 14
0.0
 24
0.0
 34
0.0
 15
0.0
 25
0.0
 35
0.0
146
0.0
 13
0.0
 23
0.0
 33
0.0
 16
1.0
 26
0.0
 36
0.0
 17
0.0
 27
1.0
 37
0.0
 76
     0
330
23
  0
LAYOUT
  5
22
102
{ACAD_REACTORS
330
1A
102
}
330
1A
100
AcDbPlotSettings
  1

  2
none_device
  4
Letter_(8.50_x_11.00_Inches)
  6

 40
6.35
 41
6.35
 42
6.35000508
 43
6.35000508
 44
215.9
 45
279.4
 46
0.0
 47
0.0
 48
0.0
 49
0.0
140
0.0
141
0.0
142
1.0
143
1.0
 70
  1712
 72
     1
 73
     0
 74
     0
  7

 75
     0
147
1.0
148
0.0
149
0.0
100
AcDbLayout
  1
Model
 70
     1
 71
     0
 10
0.0
 20
0.0
 11
279.4
 21
215.9
 12
0.0
 22
0.0
 32
0.0
 14
0.0
 24
0.0
 34
0.0
 15
279.4
 25
215.9
 35
0.0
146
0.0
 13
0.0
 23
0.0
 33
0.0
 16
1.0
 26
0.0
 36
0.0
 17
0.0
 27
1.0
 37
0.0
 76
     0
330
1F
331
29
  0
MLINESTYLE
  5
18
102
{ACAD_REACTORS
330
17
102
}
330
17
100
AcDbMlineStyle
  2
Standard
 70
     0
  3

 62
   256
 51
90.0
 52
90.0
 71
     2
 49
0.5
 62
   256
  6
BYLAYER
 49
-0.5
 62
   256
  6
BYLAYER
  0
ACDBPLACEHOLDER
  5
F
102
{ACAD_REACTORS
330
E
102
}
330
E
  0
SCALE
  5
48
102
{ACAD_REACTORS
330
47
102
}
330
47
100
AcDbScale
 70
     0
300
1:1
140
1.0
141
1.0
290
     1
  0
SCALE
  5
49
102
{ACAD_REACTORS
330
47
102
}
330
47
100
AcDbScale
 70
     0
300
1:2
140
1.0
141
2.0
290
     0
  0
SCALE
  5
4A
102
{ACAD_REACTORS
330
47
102
}
330
47
100
AcDbScale
 70
     0
300
1:4
140
1.0
141
4.0
290
     0
  0
SCALE
  5
4B
102
{ACAD_REACTORS
330
47
102
}
330
47
100
AcDbScale
 70
     0
300
1:5
140
1.0
141
5.0
290
     0
  0
SCALE
  5
4C
102
{ACAD_REACTORS
330
47
102
}
330
47
100
AcDbScale
 70
     0
300
1:8
140
1.0
141
8.0
290
     0
  0
SCALE
  5
4D
102
{ACAD_REACTORS
330
47
102
}
330
47
100
AcDbScale
 70
     0
300
1:10
140
1.0
141
10.0
290
     0
  0
SCALE
  5
4E
102
{ACAD_REACTORS
330
47
102
}
330
47
100
AcDbScale
 70
     0
300
1:16
140
1.0
141
16.0
290
     0
  0
SCALE
  5
4F
102
{ACAD_REACTORS
330
47
102
}
330
47
100
AcDbScale
 70
     0
300
1:20
140
1.0
141
20.0
290
     0
  0
SCALE
  5
50
102
{ACAD_REACTORS
330
47
102
}
330
47
100
AcDbScale
 70
     0
300
1:30
140
1.0
141
30.0
290
     0
  0
SCALE
  5
51
102
{ACAD_REACTORS
330
47
102
}
330
47
100
AcDbScale
 70
     0
300
1:40
140
1.0
141
40.0
290
     0
  0
SCALE
  5
52
102
{ACAD_REACTORS
330
47
102
}
330
47
100
AcDbScale
 70
     0
300
1:50
140
1.0
141
50.0
290
     0
  0
SCALE
  5
53
102
{ACAD_REACTORS
330
47
102
}
330
47
100
AcDbScale
 70
     0
300
1:100
140
1.0
141
100.0
290
     0
  0
SCALE
  5
54
102
{ACAD_REACTORS
330
47
102
}
330
47
100
AcDbScale
 70
     0
300
2:1
140
2.0
141
1.0
290
     0
  0
SCALE
  5
55
102
{ACAD_REACTORS
330
47
102
}
330
47
100
AcDbScale
 70
     0
300
4:1
140
4.0
141
1.0
290
     0
  0
SCALE
  5
56
102
{ACAD_REACTORS
330
47
102
}
330
47
100
AcDbScale
 70
     0
300
8:1
140
8.0
141
1.0
290
     0
  0
SCALE
  5
57
102
{ACAD_REACTORS
330
47
102
}
330
47
100
AcDbScale
 70
     0
300
10:1
140
10.0
141
1.0
290
     0
  0
SCALE
  5
58
102
{ACAD_REACTORS
330
47
102
}
330
47
100
AcDbScale
 70
     0
300
100:1
140
100.0
141
1.0
290
     0
  0
SCALE
  5
59
102
{ACAD_REACTORS
330
47
102
}
330
47
100
AcDbScale
 70
     0
300
1/128" = 1'-0"
140
0.0078125
141
12.0
290
     0
  0
SCALE
  5
5A
102
{ACAD_REACTORS
330
47
102
}
330
47
100
AcDbScale
 70
     0
300
1/64" = 1'-0"
140
0.015625
141
12.0
290
     0
  0
SCALE
  5
5B
102
{ACAD_REACTORS
330
47
102
}
330
47
100
AcDbScale
 70
     0
300
1/32" = 1'-0"
140
0.03125
141
12.0
290
     0
  0
SCALE
  5
5C
102
{ACAD_REACTORS
330
47
102
}
330
47
100
AcDbScale
 70
     0
300
1/16" = 1'-0"
140
0.0625
141
12.0
290
     0
  0
SCALE
  5
5D
102
{ACAD_REACTORS
330
47
102
}
330
47
100
AcDbScale
 70
     0
300
3/32" = 1'-0"
140
0.09375
141
12.0
290
     0
  0
SCALE
  5
5E
102
{ACAD_REACTORS
330
47
102
}
330
47
100
AcDbScale
 70
     0
300
1/8" = 1'-0"
140
0.125
141
12.0
290
     0
  0
SCALE
  5
5F
102
{ACAD_REACTORS
330
47
102
}
330
47
100
AcDbScale
 70
     0
300
3/16" = 1'-0"
140
0.1875
141
12.0
290
     0
  0
SCALE
  5
60
102
{ACAD_REACTORS
330
47
102
}
330
47
100
AcDbScale
 70
     0
300
1/4" = 1'-0"
140
0.25
141
12.0
290
     0
  0
SCALE
  5
61
102
{ACAD_REACTORS
330
47
102
}
330
47
100
AcDbScale
 70
     0
300
3/8" = 1'-0"
140
0.375
141
12.0
290
     0
  0
SCALE
  5
62
102
{ACAD_REACTORS
330
47
102
}
330
47
100
AcDbScale
 70
     0
300
1/2" = 1'-0"
140
0.5
141
12.0
290
     0
  0
SCALE
  5
63
102
{ACAD_REACTORS
330
47
102
}
330
47
100
AcDbScale
 70
     0
300
3/4" = 1'-0"
140
0.75
141
12.0
290
     0
  0
SCALE
  5
64
102
{ACAD_REACTORS
330
47
102
}
330
47
100
AcDbScale
 70
     0
300
1" = 1'-0"
140
1.0
141
12.0
290
     0
  0
SCALE
  5
65
102
{ACAD_REACTORS
330
47
102
}
330
47
100
AcDbScale
 70
     0
300
1-1/2" = 1'-0"
140
1.5
141
12.0
290
     0
  0
SCALE
  5
66
102
{ACAD_REACTORS
330
47
102
}
330
47
100
AcDbScale
 70
     0
300
3" = 1'-0"
140
3.0
141
12.0
290
     0
  0
SCALE
  5
67
102
{ACAD_REACTORS
330
47
102
}
330
47
100
AcDbScale
 70
     0
300
6" = 1'-0"
140
6.0
141
12.0
290
     0
  0
SCALE
  5
68
102
{ACAD_REACTORS
330
47
102
}
330
47
100
AcDbScale
 70
     0
300
1'-0" = 1'-0"
140
12.0
141
12.0
290
     0
  0
ENDSEC
  0
EOF
